  0
SECTION
  2
HEADER
  9
$ACADVER
  1
AC1024
  9
$ACADMAINTVER
 70
   155
  9
$DWGCODEPAGE
  3
ANSI_1252
  9
$LASTSAVEDBY
  1
Nicole
  9
$INSBASE
 10
0.0
 20
0.0
 30
0.0
  9
$EXTMIN
 10
-6.913888958905406
 20
0.0927385637095766
 30
0.0
  9
$EXTMAX
 10
37.66692400012757
 20
33.65594696771311
 30
0.0
  9
$LIMMIN
 10
0.0
 20
0.0
  9
$LIMMAX
 10
12.0
 20
9.0
  9
$ORTHOMODE
 70
     1
  9
$REGENMODE
 70
     1
  9
$FILLMODE
 70
     1
  9
$QTEXTMODE
 70
     0
  9
$MIRRTEXT
 70
     0
  9
$LTSCALE
 40
1.0
  9
$ATTMODE
 70
     1
  9
$TEXTSIZE
 40
0.2
  9
$TRACEWID
 40
0.05
  9
$TEXTSTYLE
  7
Standard
  9
$CLAYER
  8
5024B.65G
  9
$CELTYPE
  6
ByLayer
  9
$CECOLOR
 62
   256
  9
$CELTSCALE
 40
1.0
  9
$DISPSILH
 70
     0
  9
$DIMSCALE
 40
1.0
  9
$DIMASZ
 40
0.18
  9
$DIMEXO
 40
0.0625
  9
$DIMDLI
 40
0.38
  9
$DIMRND
 40
0.0
  9
$DIMDLE
 40
0.0
  9
$DIMEXE
 40
0.18
  9
$DIMTP
 40
0.0
  9
$DIMTM
 40
0.0
  9
$DIMTXT
 40
0.18
  9
$DIMCEN
 40
0.09
  9
$DIMTSZ
 40
0.0
  9
$DIMTOL
 70
     0
  9
$DIMLIM
 70
     0
  9
$DIMTIH
 70
     1
  9
$DIMTOH
 70
     1
  9
$DIMSE1
 70
     0
  9
$DIMSE2
 70
     0
  9
$DIMTAD
 70
     0
  9
$DIMZIN
 70
     0
  9
$DIMBLK
  1

  9
$DIMASO
 70
     1
  9
$DIMSHO
 70
     1
  9
$DIMPOST
  1

  9
$DIMAPOST
  1

  9
$DIMALT
 70
     0
  9
$DIMALTD
 70
     2
  9
$DIMALTF
 40
25.4
  9
$DIMLFAC
 40
1.0
  9
$DIMTOFL
 70
     0
  9
$DIMTVP
 40
0.0
  9
$DIMTIX
 70
     0
  9
$DIMSOXD
 70
     0
  9
$DIMSAH
 70
     0
  9
$DIMBLK1
  1

  9
$DIMBLK2
  1

  9
$DIMSTYLE
  2
Standard
  9
$DIMCLRD
 70
     0
  9
$DIMCLRE
 70
     0
  9
$DIMCLRT
 70
     0
  9
$DIMTFAC
 40
1.0
  9
$DIMGAP
 40
0.09
  9
$DIMJUST
 70
     0
  9
$DIMSD1
 70
     0
  9
$DIMSD2
 70
     0
  9
$DIMTOLJ
 70
     1
  9
$DIMTZIN
 70
     0
  9
$DIMALTZ
 70
     0
  9
$DIMALTTZ
 70
     0
  9
$DIMUPT
 70
     0
  9
$DIMDEC
 70
     4
  9
$DIMTDEC
 70
     4
  9
$DIMALTU
 70
     4
  9
$DIMALTTD
 70
     2
  9
$DIMTXSTY
  7
Standard
  9
$DIMAUNIT
 70
     0
  9
$DIMADEC
 70
     0
  9
$DIMALTRND
 40
0.0
  9
$DIMAZIN
 70
     0
  9
$DIMDSEP
 70
    46
  9
$DIMATFIT
 70
     3
  9
$DIMFRAC
 70
     0
  9
$DIMLDRBLK
  1

  9
$DIMLUNIT
 70
     4
  9
$DIMLWD
 70
    -2
  9
$DIMLWE
 70
    -2
  9
$DIMTMOVE
 70
     0
  9
$DIMFXL
 40
1.0
  9
$DIMFXLON
 70
     0
  9
$DIMJOGANG
 40
0.7853981633974483
  9
$DIMTFILL
 70
     0
  9
$DIMTFILLCLR
 70
     0
  9
$DIMARCSYM
 70
     0
  9
$DIMLTYPE
  6

  9
$DIMLTEX1
  6

  9
$DIMLTEX2
  6

  9
$DIMTXTDIRECTION
 70
     0
  9
$LUNITS
 70
     4
  9
$LUPREC
 70
     4
  9
$SKETCHINC
 40
0.1
  9
$FILLETRAD
 40
0.0
  9
$AUNITS
 70
     0
  9
$AUPREC
 70
     0
  9
$MENU
  1
.
  9
$ELEVATION
 40
0.0
  9
$PELEVATION
 40
0.0
  9
$THICKNESS
 40
0.0
  9
$LIMCHECK
 70
     0
  9
$CHAMFERA
 40
0.0
  9
$CHAMFERB
 40
0.0
  9
$CHAMFERC
 40
0.0
  9
$CHAMFERD
 40
0.0
  9
$SKPOLY
 70
     0
  9
$TDCREATE
 40
2458099.655208542
  9
$TDUCREATE
 40
2458099.863541875
  9
$TDUPDATE
 40
2458099.677622974
  9
$TDUUPDATE
 40
2458099.885956308
  9
$TDINDWG
 40
0.0022086690
  9
$TDUSRTIMER
 40
0.0022086690
  9
$USRTIMER
 70
     1
  9
$ANGBASE
 50
0.0
  9
$ANGDIR
 70
     0
  9
$PDMODE
 70
     0
  9
$PDSIZE
 40
0.0
  9
$PLINEWID
 40
0.0
  9
$SPLFRAME
 70
     0
  9
$SPLINETYPE
 70
     6
  9
$SPLINESEGS
 70
     8
  9
$HANDSEED
  5
1FD
  9
$SURFTAB1
 70
     6
  9
$SURFTAB2
 70
     6
  9
$SURFTYPE
 70
     6
  9
$SURFU
 70
     6
  9
$SURFV
 70
     6
  9
$UCSBASE
  2

  9
$UCSNAME
  2

  9
$UCSORG
 10
0.0
 20
0.0
 30
0.0
  9
$UCSXDIR
 10
1.0
 20
0.0
 30
0.0
  9
$UCSYDIR
 10
0.0
 20
1.0
 30
0.0
  9
$UCSORTHOREF
  2

  9
$UCSORTHOVIEW
 70
     0
  9
$UCSORGTOP
 10
0.0
 20
0.0
 30
0.0
  9
$UCSORGBOTTOM
 10
0.0
 20
0.0
 30
0.0
  9
$UCSORGLEFT
 10
0.0
 20
0.0
 30
0.0
  9
$UCSORGRIGHT
 10
0.0
 20
0.0
 30
0.0
  9
$UCSORGFRONT
 10
0.0
 20
0.0
 30
0.0
  9
$UCSORGBACK
 10
0.0
 20
0.0
 30
0.0
  9
$PUCSBASE
  2

  9
$PUCSNAME
  2

  9
$PUCSORG
 10
0.0
 20
0.0
 30
0.0
  9
$PUCSXDIR
 10
1.0
 20
0.0
 30
0.0
  9
$PUCSYDIR
 10
0.0
 20
1.0
 30
0.0
  9
$PUCSORTHOREF
  2

  9
$PUCSORTHOVIEW
 70
     0
  9
$PUCSORGTOP
 10
0.0
 20
0.0
 30
0.0
  9
$PUCSORGBOTTOM
 10
0.0
 20
0.0
 30
0.0
  9
$PUCSORGLEFT
 10
0.0
 20
0.0
 30
0.0
  9
$PUCSORGRIGHT
 10
0.0
 20
0.0
 30
0.0
  9
$PUCSORGFRONT
 10
0.0
 20
0.0
 30
0.0
  9
$PUCSORGBACK
 10
0.0
 20
0.0
 30
0.0
  9
$USERI1
 70
     0
  9
$USERI2
 70
     0
  9
$USERI3
 70
     0
  9
$USERI4
 70
     0
  9
$USERI5
 70
     0
  9
$USERR1
 40
0.0
  9
$USERR2
 40
0.0
  9
$USERR3
 40
0.0
  9
$USERR4
 40
0.0
  9
$USERR5
 40
0.0
  9
$WORLDVIEW
 70
     1
  9
$SHADEDGE
 70
     3
  9
$SHADEDIF
 70
    70
  9
$TILEMODE
 70
     1
  9
$MAXACTVP
 70
    64
  9
$PINSBASE
 10
0.0
 20
0.0
 30
0.0
  9
$PLIMCHECK
 70
     0
  9
$PEXTMIN
 10
1.000000000000000E+20
 20
1.000000000000000E+20
 30
1.000000000000000E+20
  9
$PEXTMAX
 10
-1.000000000000000E+20
 20
-1.000000000000000E+20
 30
-1.000000000000000E+20
  9
$PLIMMIN
 10
0.0
 20
0.0
  9
$PLIMMAX
 10
12.0
 20
9.0
  9
$UNITMODE
 70
     0
  9
$VISRETAIN
 70
     1
  9
$PLINEGEN
 70
     0
  9
$PSLTSCALE
 70
     1
  9
$TREEDEPTH
 70
  3020
  9
$CMLSTYLE
  2
Standard
  9
$CMLJUST
 70
     0
  9
$CMLSCALE
 40
1.0
  9
$PROXYGRAPHICS
 70
     1
  9
$MEASUREMENT
 70
     0
  9
$CELWEIGHT
370
    -1
  9
$ENDCAPS
280
     0
  9
$JOINSTYLE
280
     0
  9
$LWDISPLAY
290
     0
  9
$INSUNITS
 70
     1
  9
$HYPERLINKBASE
  1

  9
$STYLESHEET
  1

  9
$XEDIT
290
     1
  9
$CEPSNTYPE
380
     0
  9
$PSTYLEMODE
290
     1
  9
$FINGERPRINTGUID
  2
{EF7FE4EA-82D8-450A-8D4C-904DC3752735}
  9
$VERSIONGUID
  2
{00D7690A-32FD-40E4-9263-0CBB9BEB9249}
  9
$EXTNAMES
290
     1
  9
$PSVPSCALE
 40
0.0
  9
$OLESTARTUP
290
     0
  9
$SORTENTS
280
   127
  9
$INDEXCTL
280
     0
  9
$HIDETEXT
280
     1
  9
$XCLIPFRAME
280
     2
  9
$HALOGAP
280
     0
  9
$OBSCOLOR
 70
   257
  9
$OBSLTYPE
280
     0
  9
$INTERSECTIONDISPLAY
280
     0
  9
$INTERSECTIONCOLOR
 70
   257
  9
$DIMASSOC
280
     2
  9
$PROJECTNAME
  1

  9
$CAMERADISPLAY
290
     0
  9
$LENSLENGTH
 40
50.0
  9
$CAMERAHEIGHT
 40
0.0
  9
$STEPSPERSEC
 40
2.0
  9
$STEPSIZE
 40
6.0
  9
$3DDWFPREC
 40
2.0
  9
$PSOLWIDTH
 40
0.25
  9
$PSOLHEIGHT
 40
4.0
  9
$LOFTANG1
 40
1.570796326794896
  9
$LOFTANG2
 40
1.570796326794896
  9
$LOFTMAG1
 40
0.0
  9
$LOFTMAG2
 40
0.0
  9
$LOFTPARAM
 70
     7
  9
$LOFTNORMALS
280
     1
  9
$LATITUDE
 40
0.0
  9
$LONGITUDE
 40
0.0
  9
$NORTHDIRECTION
 40
0.0
  9
$TIMEZONE
 70
     0
  9
$LIGHTGLYPHDISPLAY
280
     1
  9
$TILEMODELIGHTSYNCH
280
     1
  9
$CMATERIAL
347
11
  9
$SOLIDHIST
280
     0
  9
$SHOWHIST
280
     1
  9
$DWFFRAME
280
     2
  9
$DGNFRAME
280
     0
  9
$REALWORLDSCALE
290
     1
  9
$INTERFERECOLOR
 62
     1
  9
$INTERFEREOBJVS
345
33
  9
$INTERFEREVPVS
346
30
  9
$CSHADOW
280
     0
  9
$SHADOWPLANELOCATION
 40
0.0
  0
ENDSEC
  0
SECTION
  2
CLASSES
  0
CLASS
  1
ACDBDICTIONARYWDFLT
  2
AcDbDictionaryWithDefault
  3
ObjectDBX Classes
 90
        0
 91
        1
280
     0
281
     0
  0
CLASS
  1
MATERIAL
  2
AcDbMaterial
  3
ObjectDBX Classes
 90
     1153
 91
        3
280
     0
281
     0
  0
CLASS
  1
VISUALSTYLE
  2
AcDbVisualStyle
  3
ObjectDBX Classes
 90
     4095
 91
       24
280
     0
281
     0
  0
CLASS
  1
SCALE
  2
AcDbScale
  3
ObjectDBX Classes
 90
     1153
 91
       17
280
     0
281
     0
  0
CLASS
  1
TABLESTYLE
  2
AcDbTableStyle
  3
ObjectDBX Classes
 90
     4095
 91
        1
280
     0
281
     0
  0
CLASS
  1
MLEADERSTYLE
  2
AcDbMLeaderStyle
  3
ACDB_MLEADERSTYLE_CLASS
 90
     4095
 91
        1
280
     0
281
     0
  0
CLASS
  1
ACDBSECTIONVIEWSTYLE
  2
AcDbSectionViewStyle
  3
ObjectDBX Classes
 90
     1025
 91
        1
280
     0
281
     0
  0
CLASS
  1
ACDBDETAILVIEWSTYLE
  2
AcDbDetailViewStyle
  3
ObjectDBX Classes
 90
     1025
 91
        1
280
     0
281
     0
  0
CLASS
  1
RASTERVARIABLES
  2
AcDbRasterVariables
  3
ISM
 90
        0
 91
        1
280
     0
281
     0
  0
CLASS
  1
DICTIONARYVAR
  2
AcDbDictionaryVar
  3
ObjectDBX Classes
 90
        0
 91
        5
280
     0
281
     0
  0
CLASS
  1
SORTENTSTABLE
  2
AcDbSortentsTable
  3
ObjectDBX Classes
 90
        0
 91
        3
280
     0
281
     0
  0
CLASS
  1
SOLID_BACKGROUND
  2
AcDbSolidBackground
  3
SCENEOE
 90
     4095
 91
        1
280
     0
281
     0
  0
CLASS
  1
NPOCOLLECTION
  2
AcDbImpNonPersistentObjectsCollection
  3
ObjectDBX Classes
 90
     1153
 91
        1
280
     0
281
     0
  0
CLASS
  1
CELLSTYLEMAP
  2
AcDbCellStyleMap
  3
ObjectDBX Classes
 90
     1152
 91
        1
280
     0
281
     0
  0
ENDSEC
  0
SECTION
  2
TABLES
  0
TABLE
  2
VPORT
  5
8
330
0
100
AcDbSymbolTable
 70
     1
  0
VPORT
  5
57
330
8
100
AcDbSymbolTableRecord
100
AcDbViewportTableRecord
  2
*Active
 70
     0
 10
0.0
 20
0.0
 11
1.0
 21
1.0
 12
0.0
 22
0.0
 13
0.0
 23
0.0
 14
1.0
 24
1.0
 15
0.0
 25
0.0
 16
-0.0000000000000409
 26
0.0
 36
186.403564325509
 17
15.37651752061108
 27
16.87434276571134
 37
0.0
 40
55.80266877541663
 41
2.587837837837837
 42
50.0
 43
0.0
 44
0.0
 50
0.0
 51
0.0
 71
     0
 72
  1000
 73
     1
 74
     1
 75
     0
 76
     0
 77
     0
 78
     0
281
     0
 65
     1
110
0.0
120
0.0
130
0.0
111
1.0
121
0.0
131
0.0
112
0.0
122
1.0
132
0.0
 79
     0
146
0.0
348
2F
 60
     3
 61
     5
292
     1
282
     1
141
0.0
142
0.0
 63
   250
421
  3355443
1001
ACAD_NAV_VCDISPLAY
1070
     3
  0
ENDTAB
  0
TABLE
  2
LTYPE
  5
5
330
0
100
AcDbSymbolTable
 70
     2
  0
LTYPE
  5
5B
330
5
100
AcDbSymbolTableRecord
100
AcDbLinetypeTableRecord
  2
ByBlock
 70
     0
  3

 72
    65
 73
     0
 40
0.0
  0
LTYPE
  5
5C
330
5
100
AcDbSymbolTableRecord
100
AcDbLinetypeTableRecord
  2
ByLayer
 70
     0
  3

 72
    65
 73
     0
 40
0.0
  0
LTYPE
  5
5D
330
5
100
AcDbSymbolTableRecord
100
AcDbLinetypeTableRecord
  2
Continuous
 70
     0
  3
Solid line
 72
    65
 73
     0
 40
0.0
  0
ENDTAB
  0
TABLE
  2
LAYER
  5
2
330
0
100
AcDbSymbolTable
 70
     2
  0
LAYER
  5
54
330
2
100
AcDbSymbolTableRecord
100
AcDbLayerTableRecord
  2
0
 70
     0
 62
     7
  6
Continuous
370
    -3
390
F
347
21
  0
LAYER
  5
8A
330
2
100
AcDbSymbolTableRecord
100
AcDbLayerTableRecord
  2
5024B.65G
 70
     0
 62
   255
  6
Continuous
370
     9
390
F
347
21
  0
ENDTAB
  0
TABLE
  2
STYLE
  5
3
330
0
100
AcDbSymbolTable
 70
     2
  0
STYLE
  5
55
330
3
100
AcDbSymbolTableRecord
100
AcDbTextStyleTableRecord
  2
Standard
 70
     0
 40
0.0
 41
1.0
 50
0.0
 71
     0
 42
0.2
  3
txt
  4

  0
STYLE
  5
5A
330
3
100
AcDbSymbolTableRecord
100
AcDbTextStyleTableRecord
  2
Annotative
 70
     0
 40
0.0
 41
1.0
 50
0.0
 71
     0
 42
0.2
  3
txt
  4

1001
AcadAnnotative
1000
AnnotativeData
1002
{
1070
     1
1070
     1
1002
}
  0
ENDTAB
  0
TABLE
  2
VIEW
  5
6
330
0
100
AcDbSymbolTable
 70
     0
  0
ENDTAB
  0
TABLE
  2
UCS
  5
7
330
0
100
AcDbSymbolTable
 70
     0
  0
ENDTAB
  0
TABLE
  2
APPID
  5
9
330
0
100
AcDbSymbolTable
 70
     5
  0
APPID
  5
56
330
9
100
AcDbSymbolTableRecord
100
AcDbRegAppTableRecord
  2
ACAD
 70
     0
  0
APPID
  5
5E
330
9
100
AcDbSymbolTableRecord
100
AcDbRegAppTableRecord
  2
AcadAnnotative
 70
     0
  0
APPID
  5
78
330
9
100
AcDbSymbolTableRecord
100
AcDbRegAppTableRecord
  2
REVIT
 70
     0
  0
APPID
  5
E2
330
9
100
AcDbSymbolTableRecord
100
AcDbRegAppTableRecord
  2
ACAD_NAV_VCDISPLAY
 70
     0
  0
APPID
  5
125
330
9
100
AcDbSymbolTableRecord
100
AcDbRegAppTableRecord
  2
ACAD_EXEMPT_FROM_CAD_STANDARDS
 70
     0
  0
ENDTAB
  0
TABLE
  2
DIMSTYLE
  5
A
330
0
100
AcDbSymbolTable
 70
     3
100
AcDbDimStyleTable
 71
     1
340
58
  0
DIMSTYLE
105
58
330
A
100
AcDbSymbolTableRecord
100
AcDbDimStyleTableRecord
  2
Standard
 70
     0
340
55
  0
DIMSTYLE
105
59
330
A
100
AcDbSymbolTableRecord
100
AcDbDimStyleTableRecord
  2
Annotative
 70
     0
340
55
1001
AcadAnnotative
1000
AnnotativeData
1002
{
1070
     1
1070
     1
1002
}
  0
ENDTAB
  0
TABLE
  2
BLOCK_RECORD
  5
1
330
0
100
AcDbSymbolTable
 70
    11
  0
BLOCK_RECORD
  5
70
102
{ACAD_XDICTIONARY
360
B5
102
}
330
1
100
AcDbSymbolTableRecord
100
AcDbBlockTableRecord
  2
*Model_Space
340
73
 70
     0
280
     1
281
     0
  0
BLOCK_RECORD
  5
6C
330
1
100
AcDbSymbolTableRecord
100
AcDbBlockTableRecord
  2
*Paper_Space
340
6F
 70
     0
280
     1
281
     0
  0
BLOCK_RECORD
  5
74
330
1
100
AcDbSymbolTableRecord
100
AcDbBlockTableRecord
  2
*Paper_Space0
340
77
 70
     0
280
     1
281
     0
  0
BLOCK_RECORD
  5
86
330
1
100
AcDbSymbolTableRecord
100
AcDbBlockTableRecord
  2
FamilyGeomCombination_19483-Left
340
0
 70
     0
280
     1
281
     0
  0
BLOCK_RECORD
  5
8B
330
1
100
AcDbSymbolTableRecord
100
AcDbBlockTableRecord
  2
FamilyGeomCombination_27920-Left
340
0
 70
     0
280
     1
281
     0
  0
BLOCK_RECORD
  5
C6
330
1
100
AcDbSymbolTableRecord
100
AcDbBlockTableRecord
  2
FamilyGeomCombination_19483-Front
340
0
102
{BLKREFS
102
}
 70
     0
280
     1
281
     0
  0
BLOCK_RECORD
  5
D7
330
1
100
AcDbSymbolTableRecord
100
AcDbBlockTableRecord
  2
FamilyGeomCombination_27920-Front
340
0
102
{BLKREFS
102
}
 70
     0
280
     1
281
     0
  0
BLOCK_RECORD
  5
167
330
1
100
AcDbSymbolTableRecord
100
AcDbBlockTableRecord
  2
AMSTD_Transitional_5024B.65G_Plan View
340
0
310
2800000020000000200000000100080000000000000400000000000000000000000000000000000000000000000080000080000000808000800000008000800080800000C0C0C000C0DCC000F0CAA6000020400000206000002080000020A0000020C0000020E00000400000004020000040400000406000004080000040A0
310
000040C0000040E00000600000006020000060400000606000006080000060A0000060C0000060E00000800000008020000080400000806000008080000080A0000080C0000080E00000A0000000A0200000A0400000A0600000A0800000A0A00000A0C00000A0E00000C0000000C0200000C0400000C0600000C0800000C0
310
A00000C0C00000C0E00000E0000000E0200000E0400000E0600000E0800000E0A00000E0C00000E0E00040000000400020004000400040006000400080004000A0004000C0004000E00040200000402020004020400040206000402080004020A0004020C0004020E000404000004040200040404000404060004040800040
310
40A0004040C0004040E00040600000406020004060400040606000406080004060A0004060C0004060E00040800000408020004080400040806000408080004080A0004080C0004080E00040A0000040A0200040A0400040A0600040A0800040A0A00040A0C00040A0E00040C0000040C0200040C0400040C0600040C08000
310
40C0A00040C0C00040C0E00040E0000040E0200040E0400040E0600040E0800040E0A00040E0C00040E0E00080000000800020008000400080006000800080008000A0008000C0008000E00080200000802020008020400080206000802080008020A0008020C0008020E00080400000804020008040400080406000804080
310
008040A0008040C0008040E00080600000806020008060400080606000806080008060A0008060C0008060E00080800000808020008080400080806000808080008080A0008080C0008080E00080A0000080A0200080A0400080A0600080A0800080A0A00080A0C00080A0E00080C0000080C0200080C0400080C0600080C0
310
800080C0A00080C0C00080C0E00080E0000080E0200080E0400080E0600080E0800080E0A00080E0C00080E0E000C0000000C0002000C0004000C0006000C0008000C000A000C000C000C000E000C0200000C0202000C0204000C0206000C0208000C020A000C020C000C020E000C0400000C0402000C0404000C0406000C0
310
408000C040A000C040C000C040E000C0600000C0602000C0604000C0606000C0608000C060A000C060C000C060E000C0800000C0802000C0804000C0806000C0808000C080A000C080C000C080E000C0A00000C0A02000C0A04000C0A06000C0A08000C0A0A000C0A0C000C0A0E000C0C00000C0C02000C0C04000C0C06000
310
C0C08000C0C0A000F0FBFF00A4A0A000808080000000FF0000FF000000FFFF00FF000000FF00FF00FFFF0000FFFFFF004949494949494949494949494949494949494949494949494949494949494949494949494949494949494949494949BCBC494949494949494949494949494949494949494949494949494949BCBCBC
310
BCBCBCBCBC49494949494949494949494949494949494949494949BCBC4949494949494949BCBC494949494949494949494949494949494949BCBC494949494949494949494949BCBC49494949494949494949494949494949BC494949494949494949494949494949BC4949494949494949494949494949BC494949494949
310
49494949494949494949BC4949494949494949494949494949BC4949494949494949494949494949494949BC494949494949494949494949BC494949494949494949494949494949494949BC4949494949494949494949BCBC49494949494949494949494949494949494949BC49494949494949494949BC49494949494949
310
49494949494949494949494949BC49494949494949494949BC4949494949494949494949494949494949494949BCBC4949494949494949BC49494949494949494949494949494949494949494949BC4949494949494949BC49494949494949494949494949494949494949494949BC4949494949494949BC49494949494949
310
494949494949494949494949494949BC4949494949494949BC49494949494949494949494949494949494949494949BC4949494949494949BC49494949494949494949494949494949494949494949BC4949494949494949BC49494949494949494949494949494949494949494949BC4949494949494949BC494949494949
310
49494949494949494949494949494949BC4949494949494949BCBC494949494949494949494949494949494949494949BC494949494949494949BC4949494949494949494949494949494949494949BC49494949494949494949BC4949494949494949494949494949494949494949BC49494949494949494949BC49494949
310
49494949494949494949494949494949BC4949494949494949494949BC49494949494949494949494949494949494949BC4949494949494949494949BC494949494949494949494949494949494949BC494949494949494949494949BC494949494949494949494949494949494949BC49494949494949494949494949BC49
310
49494949494949494949494949494949BC49494949494949494949494949BCBC4949494949494949494949494949BCBC494949494949494949494949494949BCBCBCBCBCBCBCBCBCBCBCBCBCBCBCBC494949494949494949494949494949494949BCBCBC494949494949BCBCBC494949494949494949494949494949494949
310
494949BC4949494949494949BC49494949494949494949494949494949494949494949494949494949494949494949494949494949494949
102
{BLKREFS
331
181
102
}
 70
     1
280
     1
281
     1
  0
BLOCK_RECORD
  5
182
330
1
100
AcDbSymbolTableRecord
100
AcDbBlockTableRecord
  2
AMSTD_Transitional_5024B.65G_Front View
340
0
310
2800000020000000200000000100080000000000000400000000000000000000000000000000000000000000000080000080000000808000800000008000800080800000C0C0C000C0DCC000F0CAA6000020400000206000002080000020A0000020C0000020E00000400000004020000040400000406000004080000040A0
310
000040C0000040E00000600000006020000060400000606000006080000060A0000060C0000060E00000800000008020000080400000806000008080000080A0000080C0000080E00000A0000000A0200000A0400000A0600000A0800000A0A00000A0C00000A0E00000C0000000C0200000C0400000C0600000C0800000C0
310
A00000C0C00000C0E00000E0000000E0200000E0400000E0600000E0800000E0A00000E0C00000E0E00040000000400020004000400040006000400080004000A0004000C0004000E00040200000402020004020400040206000402080004020A0004020C0004020E000404000004040200040404000404060004040800040
310
40A0004040C0004040E00040600000406020004060400040606000406080004060A0004060C0004060E00040800000408020004080400040806000408080004080A0004080C0004080E00040A0000040A0200040A0400040A0600040A0800040A0A00040A0C00040A0E00040C0000040C0200040C0400040C0600040C08000
310
40C0A00040C0C00040C0E00040E0000040E0200040E0400040E0600040E0800040E0A00040E0C00040E0E00080000000800020008000400080006000800080008000A0008000C0008000E00080200000802020008020400080206000802080008020A0008020C0008020E00080400000804020008040400080406000804080
310
008040A0008040C0008040E00080600000806020008060400080606000806080008060A0008060C0008060E00080800000808020008080400080806000808080008080A0008080C0008080E00080A0000080A0200080A0400080A0600080A0800080A0A00080A0C00080A0E00080C0000080C0200080C0400080C0600080C0
310
800080C0A00080C0C00080C0E00080E0000080E0200080E0400080E0600080E0800080E0A00080E0C00080E0E000C0000000C0002000C0004000C0006000C0008000C000A000C000C000C000E000C0200000C0202000C0204000C0206000C0208000C020A000C020C000C020E000C0400000C0402000C0404000C0406000C0
310
408000C040A000C040C000C040E000C0600000C0602000C0604000C0606000C0608000C060A000C060C000C060E000C0800000C0802000C0804000C0806000C0808000C080A000C080C000C080E000C0A00000C0A02000C0A04000C0A06000C0A08000C0A0A000C0A0C000C0A0E000C0C00000C0C02000C0C04000C0C06000
310
C0C08000C0C0A000F0FBFF00A4A0A000808080000000FF0000FF000000FFFF00FF000000FF00FF00FFFF0000FFFFFF0049494949494949494949494949494949494949494949494949494949494949494949494949494949494949494949494949494949494949494949494949494949494949494949494949494949494949
310
49494949494949494949494949494949494949494949494949494949494949494949494949494949494949494949494949494949494949494949494949494949494949494949494949494949494949494949494949494949494949494949494949494949494949494949494949494949494949494949494949494949494949
310
49494949494949494949494949494949494949494949494949494949494949494949494949494949494949494949494949494949494949494949494949494949494949494949494949494949494949494949494949494949494949494949494949494949494949494949494949494949494949494949494949494949494949
310
494949494949494949494949494949494949494949494949494949494949494949494949494949494949494949494949494949494949494949494949494949494949494949494949494949494949494949494949BCBCBCBCBCBCBCBCBCBCBCBCBCBCBCBCBCBCBCBCBCBCBCBCBCBCBCBCBCBC4949BC49494949494949494949
310
494949494949494949494949494949494949BC4949BCBCBCBCBCBCBCBCBCBCBCBCBCBCBCBCBCBCBCBCBCBCBCBCBCBCBCBCBCBC494949BC4949494949494949494949494949494949494949494949494949BC49494949BC4949494949494949494949494949494949494949494949494949BC49494949BCBCBCBCBCBCBCBCBC
310
BCBCBCBCBCBCBCBCBCBCBCBCBCBCBCBCBCBCBC494949494949494949494949494949494949494949494949494949494949494949494949494949494949494949494949494949494949494949494949494949494949494949494949494949494949494949494949494949494949494949494949494949494949494949494949
310
49494949494949494949494949494949494949494949494949494949494949494949494949494949494949494949494949494949494949494949494949494949494949494949494949494949494949494949494949494949494949494949494949494949494949494949494949494949494949494949494949494949494949
310
49494949494949494949494949494949494949494949494949494949494949494949494949494949494949494949494949494949494949494949494949494949494949494949494949494949494949494949494949494949494949494949494949494949494949494949494949494949494949494949494949494949494949
310
4949494949494949494949494949494949494949494949494949494949494949494949494949494949494949494949494949494949494949
102
{BLKREFS
331
19B
102
}
 70
     1
280
     1
281
     1
  0
BLOCK_RECORD
  5
19C
330
1
100
AcDbSymbolTableRecord
100
AcDbBlockTableRecord
  2
AMSTD_Transitional_5024B.65G_Side View
340
0
310
2800000020000000200000000100080000000000000400000000000000000000000000000000000000000000000080000080000000808000800000008000800080800000C0C0C000C0DCC000F0CAA6000020400000206000002080000020A0000020C0000020E00000400000004020000040400000406000004080000040A0
310
000040C0000040E00000600000006020000060400000606000006080000060A0000060C0000060E00000800000008020000080400000806000008080000080A0000080C0000080E00000A0000000A0200000A0400000A0600000A0800000A0A00000A0C00000A0E00000C0000000C0200000C0400000C0600000C0800000C0
310
A00000C0C00000C0E00000E0000000E0200000E0400000E0600000E0800000E0A00000E0C00000E0E00040000000400020004000400040006000400080004000A0004000C0004000E00040200000402020004020400040206000402080004020A0004020C0004020E000404000004040200040404000404060004040800040
310
40A0004040C0004040E00040600000406020004060400040606000406080004060A0004060C0004060E00040800000408020004080400040806000408080004080A0004080C0004080E00040A0000040A0200040A0400040A0600040A0800040A0A00040A0C00040A0E00040C0000040C0200040C0400040C0600040C08000
310
40C0A00040C0C00040C0E00040E0000040E0200040E0400040E0600040E0800040E0A00040E0C00040E0E00080000000800020008000400080006000800080008000A0008000C0008000E00080200000802020008020400080206000802080008020A0008020C0008020E00080400000804020008040400080406000804080
310
008040A0008040C0008040E00080600000806020008060400080606000806080008060A0008060C0008060E00080800000808020008080400080806000808080008080A0008080C0008080E00080A0000080A0200080A0400080A0600080A0800080A0A00080A0C00080A0E00080C0000080C0200080C0400080C0600080C0
310
800080C0A00080C0C00080C0E00080E0000080E0200080E0400080E0600080E0800080E0A00080E0C00080E0E000C0000000C0002000C0004000C0006000C0008000C000A000C000C000C000E000C0200000C0202000C0204000C0206000C0208000C020A000C020C000C020E000C0400000C0402000C0404000C0406000C0
310
408000C040A000C040C000C040E000C0600000C0602000C0604000C0606000C0608000C060A000C060C000C060E000C0800000C0802000C0804000C0806000C0808000C080A000C080C000C080E000C0A00000C0A02000C0A04000C0A06000C0A08000C0A0A000C0A0C000C0A0E000C0C00000C0C02000C0C04000C0C06000
310
C0C08000C0C0A000F0FBFF00A4A0A000808080000000FF0000FF000000FFFF00FF000000FF00FF00FFFF0000FFFFFF0049494949494949494949494949494949494949494949494949494949494949494949494949494949494949494949494949494949494949494949494949494949494949494949494949494949494949
310
49494949494949494949494949494949494949494949494949494949494949494949494949494949494949494949494949494949494949494949494949494949494949494949494949494949494949494949494949494949494949494949494949494949494949494949494949494949494949494949494949494949494949
310
49494949494949494949494949494949494949494949494949494949494949494949494949494949494949494949494949494949494949494949494949494949494949494949494949494949494949494949494949494949494949494949494949494949494949494949494949494949494949494949494949494949494949
310
4949494949494949494949494949494949494949494949494949494949494949494949494949494949494949494949494949494949494949494949494949494949494949494949494949494949494949494949494949494949494949494949494949494949494949494949494949494949494949BCBCBCBCBCBCBCBCBCBCBC
310
BCBCBCBCBCBCBCBCBCBCBCBCBCBCBCBCBCBCBC49494949BCBCBCBCBCBCBCBCBCBCBCBCBCBCBCBCBCBCBCBCBCBCBCBCBCBCBCBC49494949BC49494949494949494949494949494949494949494949494949BC494949494949BCBCBCBCBCBCBCBCBCBCBCBCBCBCBCBCBCBCBCBCBCBCBCBCBCBC49494949494949494949494949
310
49494949494949494949494949494949494949494949494949494949494949494949494949494949494949494949494949494949494949494949494949494949494949494949494949494949494949494949494949494949494949494949494949494949494949494949494949494949494949494949494949494949494949
310
49494949494949494949494949494949494949494949494949494949494949494949494949494949494949494949494949494949494949494949494949494949494949494949494949494949494949494949494949494949494949494949494949494949494949494949494949494949494949494949494949494949494949
310
49494949494949494949494949494949494949494949494949494949494949494949494949494949494949494949494949494949494949494949494949494949494949494949494949494949494949494949494949494949494949494949494949494949494949494949494949494949494949494949494949494949494949
310
4949494949494949494949494949494949494949494949494949494949494949494949494949494949494949494949494949494949494949
102
{BLKREFS
331
1C2
102
}
 70
     1
280
     1
281
     1
  0
ENDTAB
  0
ENDSEC
  0
SECTION
  2
BLOCKS
  0
BLOCK
  5
71
330
70
100
AcDbEntity
  8
0
100
AcDbBlockBegin
  2
*Model_Space
 70
     0
 10
0.0
 20
0.0
 30
0.0
  3
*Model_Space
  1

  0
ENDBLK
  5
72
330
70
100
AcDbEntity
  8
0
100
AcDbBlockEnd
  0
BLOCK
  5
6D
330
6C
100
AcDbEntity
 67
     1
  8
0
100
AcDbBlockBegin
  2
*Paper_Space
 70
     0
 10
0.0
 20
0.0
 30
0.0
  3
*Paper_Space
  1

  0
ENDBLK
  5
6E
330
6C
100
AcDbEntity
 67
     1
  8
0
100
AcDbBlockEnd
  0
BLOCK
  5
75
330
74
100
AcDbEntity
 67
     1
  8
0
100
AcDbBlockBegin
  2
*Paper_Space0
 70
     0
 10
0.0
 20
0.0
 30
0.0
  3
*Paper_Space0
  1

  0
ENDBLK
  5
76
330
74
100
AcDbEntity
 67
     1
  8
0
100
AcDbBlockEnd
  0
BLOCK
  5
87
330
86
100
AcDbEntity
  8
0
100
AcDbBlockBegin
  2
FamilyGeomCombination_19483-Left
 70
     0
 10
0.0
 20
0.0
 30
0.0
  3
FamilyGeomCombination_19483-Left
  1

  0
LINE
  5
8F
330
86
100
AcDbEntity
  8
5024B.65G
100
AcDbLine
 10
0.6350473311171881
 20
1.291215701578198
 30
0.0
 11
0.6350473311171881
 21
0.9162157015781676
 31
0.0
1001
REVIT
1002
{
1070
     2
1000
-2001350
1002
}
  0
LINE
  5
90
330
86
100
AcDbEntity
  8
5024B.65G
100
AcDbLine
 10
16.58742302809375
 20
0.9162157015781682
 30
0.0
 11
16.58742302809375
 21
1.291215701578198
 31
0.0
1001
REVIT
1002
{
1070
     2
1000
-2001350
1002
}
  0
LWPOLYLINE
  5
91
330
86
100
AcDbEntity
  8
5024B.65G
100
AcDbPolyline
 90
       37
 70
   128
 43
0.0
 10
0.6815446313929617
 20
1.931564224969331
 10
0.6835096112272079
 20
1.943367068708465
 10
0.6859450071498103
 20
1.95508189319625
 10
0.6888469230468159
 20
1.966689957212532
 10
0.6922107164718324
 20
1.978172690331143
 10
0.6960310060729502
 20
1.989511722628611
 10
0.7003016802017596
 20
2.000688914072124
 10
0.7050159066906824
 20
2.011686383539712
 10
0.7101661437829853
 20
2.022486537426231
 10
0.7157441521979786
 20
2.033072097789371
 10
0.7217410083121103
 20
2.043426129990684
 10
0.7281471184348587
 20
2.05353206978739
 10
0.7349522341565909
 20
2.063373749831633
 10
0.7421454687438334
 20
2.072935425534788
 10
0.7497153145557214
 20
2.082201800255447
 10
0.7576496614537698
 20
2.091158049770777
 10
0.7659358161755127
 20
2.099789845992118
 10
0.7745605226410135
 20
2.108083379886868
 10
0.7835099831597665
 20
2.116025383569988
 10
0.792769880504059
 20
2.123603151529789
 10
0.8023254008134788
 20
2.13080456095404
 10
0.8121612572939335
 20
2.137618091123879
 10
0.8222617146732581
 20
2.144032841844512
 10
0.8326106143742958
 20
2.150038550883193
 10
0.843191400365171
 20
2.155625610386608
 10
0.8539871456454138
 20
2.160785082251396
 10
0.8649805793255447
 20
2.1655087124232
 10
0.8761541142568162
 20
2.169788944101401
 10
0.8874898751668986
 20
2.173618929828381
 10
0.8989697272565022
 20
2.176992542443996
 10
0.9105753052111888
 20
2.179904384887727
 10
0.9222880425819553
 20
2.182349798832824
 10
0.9340892014875917
 20
2.184324872138635
 10
0.9459599025912966
 20
2.185826445109198
 10
0.9578811553035841
 20
2.186852115548078
 10
0.96983388816318
 20
2.18740024260137
 10
0.9775588709267983
 20
2.18749999999995
1001
REVIT
1002
{
1070
     2
1000
-2001350
1002
}
  0
LWPOLYLINE
  5
92
330
86
100
AcDbEntity
  8
5024B.65G
100
AcDbPolyline
 90
        5
 70
   128
 43
0.0
 10
0.63504733111719
 20
1.291215701578198
 10
0.6385929414621482
 20
1.468472580793425
 10
0.6492241002768252
 20
1.645445886814691
 10
0.6669237999749788
 20
1.821852500104654
 10
0.6815446313929608
 20
1.931564224969331
1001
REVIT
1002
{
1070
     2
1000
-2001350
1002
}
  0
LWPOLYLINE
  5
93
330
86
100
AcDbEntity
  8
5024B.65G
100
AcDbPolyline
 90
       37
 70
   128
 43
0.0
 10
16.24491148828414
 20
2.18749999999995
 10
16.25687438953794
 20
2.187260710068699
 10
16.26881815270169
 20
2.18654322308779
 10
16.28072367030218
 20
2.185348686883337
 10
16.29257189605097
 20
2.183679012458446
 10
16.30434387531435
 20
2.181536870936019
 10
16.31602077543671
 20
2.178925689285525
 10
16.3275839158688
 20
2.175849644840584
 10
16.33901479805259
 20
2.172313658616119
 10
16.35029513501506
 20
2.168323387435787
 10
16.3614068806234
 20
2.163885214882262
 10
16.37233225845503
 20
2.159006241084871
 10
16.38305379023603
 20
2.153694271360898
 10
16.39355432380269
 20
2.147957803728741
 10
16.40381706054131
 20
2.141806015312897
 10
16.41382558226236
 20
2.135248747662521
 10
16.42356387746613
 20
2.128296491007043
 10
16.43301636695769
 20
2.120960367474043
 10
16.44216792877027
 20
2.113252113296218
 10
16.4510039223572
 20
2.105184060035913
 10
16.45951021201365
 20
2.09676911485725
 10
16.46767318949076
 20
2.088020739877423
 10
16.47547979576589
 20
2.078952930630181
 10
16.48291754193435
 20
2.069580193675954
 10
16.48997452918887
 20
2.059917523394461
 10
16.49663946785528
 20
2.04998037799689
 10
16.50290169545348
 20
2.039784654796068
 10
16.50875119375518
 20
2.029346664774142
 10
16.51417860481093
 20
2.018683106488498
 10
16.51917524592082
 20
2.00781103935762
 10
16.52373312352499
 20
1.996747856369668
 10
16.52784494599153
 20
1.985511256257401
 10
16.53150413528167
 20
1.974119215183986
 10
16.53470483747312
 20
1.962589957984968
 10
16.53744193212514
 20
1.950941929012422
 10
16.53971104047019
 20
1.939193762627924
 10
16.54092572781798
 20
1.931564224969331
1001
REVIT
1002
{
1070
     2
1000
-2001350
1002
}
  0
LWPOLYLINE
  5
94
330
86
100
AcDbEntity
  8
5024B.65G
100
AcDbPolyline
 90
       34
 70
   128
 43
0.0
 10
11.60259237083046
 20
2.18749999999995
 10
11.84334710720864
 20
2.18749999999995
 10
12.08358264833131
 20
2.18749999999995
 10
12.32031049788592
 20
2.18749999999995
 10
12.55315194181243
 20
2.18749999999995
 10
12.78173448347076
 20
2.18749999999995
 10
13.00569243955593
 20
2.18749999999995
 10
13.22466752511335
 20
2.18749999999995
 10
13.43830942671832
 20
2.18749999999995
 10
13.64627636290278
 20
2.18749999999995
 10
13.84823563093275
 20
2.18749999999995
 10
14.04386413906172
 20
2.18749999999995
 10
14.23284892340856
 20
2.18749999999995
 10
14.4148876486329
 20
2.18749999999995
 10
14.58968909160725
 20
2.18749999999995
 10
14.75697360731183
 20
2.18749999999995
 10
14.91647357620697
 20
2.18749999999995
 10
15.06793383236729
 20
2.18749999999995
 10
15.21111207169273
 20
2.18749999999995
 10
15.34577923954343
 20
2.18749999999995
 10
15.47171989717829
 20
2.18749999999995
 10
15.588732566411
 20
2.18749999999995
 10
15.69663005193217
 20
2.18749999999995
 10
15.79523974078187
 20
2.18749999999995
 10
15.88440387849353
 20
2.18749999999995
 10
15.9639798214675
 20
2.18749999999995
 10
16.03384026517031
 20
2.18749999999995
 10
16.0938734477948
 20
2.18749999999995
 10
16.14398332905518
 20
2.18749999999995
 10
16.18408974383095
 20
2.18749999999995
 10
16.21412853041407
 20
2.18749999999995
 10
16.23405163315392
 20
2.18749999999995
 10
16.24382717933616
 20
2.18749999999995
 10
16.24491148828414
 20
2.18749999999995
1001
REVIT
1002
{
1070
     2
1000
-2001350
1002
}
  0
LWPOLYLINE
  5
95
330
86
100
AcDbEntity
  8
5024B.65G
100
AcDbPolyline
 90
       34
 70
   128
 43
0.0
 10
16.24491148828414
 20
2.18749999999995
 10
16.23982902327956
 20
2.18749999999995
 10
16.2245897591256
 20
2.18749999999995
 10
16.19921807539406
 20
2.18749999999995
 10
16.16375456136656
 20
2.18749999999995
 10
16.1182559511004
 20
2.18749999999995
 10
16.06279503266616
 20
2.18749999999995
 10
15.99746053170229
 20
2.18749999999995
 10
15.92235696947306
 20
2.18749999999995
 10
15.8376044956568
 20
2.18749999999995
 10
15.74333869613204
 20
2.18749999999995
 10
15.63971037606906
 20
2.18749999999995
 10
15.52688531867377
 20
2.18749999999995
 10
15.40504401996994
 20
2.18749999999995
 10
15.27438140004406
 20
2.18749999999995
 10
15.13510649121482
 20
2.18749999999995
 10
14.98744210362595
 20
2.18749999999995
 10
14.83162446879752
 20
2.18749999999995
 10
14.66790286170596
 20
2.18749999999995
 10
14.49653920199718
 20
2.18749999999995
 10
14.31780763497109
 20
2.18749999999995
 10
14.13199409300756
 20
2.18749999999995
 10
13.93939583813564
 20
2.18749999999995
 10
13.74032098647767
 20
2.18749999999995
 10
13.53508801532928
 20
2.18749999999995
 10
13.3240252536636
 20
2.18749999999995
 10
13.10747035687497
 20
2.18749999999995
 10
12.88576976660234
 20
2.18749999999995
 10
12.65927815649656
 20
2.18749999999995
 10
12.42835786481814
 20
2.18749999999995
 10
12.19337831477341
 20
2.18749999999995
 10
11.95471542351615
 20
2.18749999999995
 10
11.71275100076033
 20
2.18749999999995
 10
11.59998820013624
 20
2.18749999999995
1001
REVIT
1002
{
1070
     2
1000
-2001350
1002
}
  0
LWPOLYLINE
  5
96
330
86
100
AcDbEntity
  8
5024B.65G
100
AcDbPolyline
 90
        5
 70
   128
 43
0.0
 10
16.54092572781798
 20
1.931564224969331
 10
16.5630244214516
 20
1.755654531315096
 10
16.57807092696117
 20
1.579001834608281
 10
16.58604117314764
 20
1.401888741479719
 10
16.58742302809375
 20
1.291215701578198
1001
REVIT
1002
{
1070
     2
1000
-2001350
1002
}
  0
LWPOLYLINE
  5
97
330
86
100
AcDbEntity
  8
5024B.65G
100
AcDbPolyline
 90
       21
 70
   128
 43
0.0
 10
11.59998820013624
 20
2.18749999999995
 10
11.06767371716682
 20
2.18749999999995
 10
10.53029691605116
 20
2.18749999999995
 10
9.988717485036763
 20
2.18749999999995
 10
9.443801835682481
 20
2.18749999999995
 10
8.896421716784809
 20
2.18749999999995
 10
8.347452819765775
 20
2.18749999999995
 10
7.797773377753501
 20
2.18749999999995
 10
7.248262760596508
 20
2.18749999999995
 10
6.699800068059572
 20
2.18749999999995
 10
6.153262723451614
 20
2.18749999999995
 10
5.609525069935592
 20
2.18749999999995
 10
5.069456971765951
 20
2.18749999999995
 10
4.533922422691381
 20
2.18749999999995
 10
4.003778163749121
 20
2.18749999999995
 10
3.479872312662074
 20
2.18749999999995
 10
2.963043007031354
 20
2.18749999999995
 10
2.454117063494934
 20
2.18749999999995
 10
1.953908654997391
 20
2.18749999999995
 10
1.463218008286892
 20
2.18749999999995
 10
1.185885444059085
 20
2.18749999999995
1001
REVIT
1002
{
1070
     2
1000
-2001350
1002
}
  0
LWPOLYLINE
  5
98
330
86
100
AcDbEntity
  8
5024B.65G
100
AcDbPolyline
 90
       28
 70
   128
 43
0.0
 10
1.185885444059085
 20
2.18749999999995
 10
1.171828480021129
 20
2.18749999999995
 10
1.158112620660666
 20
2.18749999999995
 10
1.144759808426775
 20
2.18749999999995
 10
1.131791404970586
 20
2.18749999999995
 10
1.119228156971181
 20
2.18749999999995
 10
1.107090162945344
 20
2.18749999999995
 10
1.095396841094215
 20
2.18749999999995
 10
1.084166898238314
 20
2.18749999999995
 10
1.073418299890616
 20
2.18749999999995
 10
1.063168241515567
 20
2.18749999999995
 10
1.053433121020003
 20
2.18749999999995
 10
1.044228512520003
 20
2.18749999999995
 10
1.035569141425622
 20
2.18749999999995
 10
1.027468860883375
 20
2.18749999999995
 10
1.019940629614165
 20
2.18749999999995
 10
1.012996491182083
 20
2.18749999999995
 10
1.006647554727285
 20
2.18749999999995
 10
1.00090397719373
 20
2.18749999999995
 10
0.9957749470802419
 20
2.18749999999995
 10
0.9912686697408656
 20
2.18749999999995
 10
0.9873923542580579
 20
2.18749999999995
 10
0.9841522019096867
 20
2.18749999999995
 10
0.9815533962483151
 20
2.18749999999995
 10
0.9796000948086172
 20
2.18749999999995
 10
0.9782954224562168
 20
2.18749999999995
 10
0.9776414663885606
 20
2.18749999999995
 10
0.9775588709267957
 20
2.18749999999995
1001
REVIT
1002
{
1070
     2
1000
-2001350
1002
}
  0
LINE
  5
99
330
86
100
AcDbEntity
  8
5024B.65G
100
AcDbLine
 10
11.69211293554461
 20
0.9162157015781671
 30
0.0
 11
16.58742302809373
 21
0.9162157015781671
 31
0.0
1001
REVIT
1002
{
1070
     2
1000
-2001350
1002
}
  0
LINE
  5
9A
330
86
100
AcDbEntity
  8
5024B.65G
100
AcDbLine
 10
1.987404095405419
 20
0.9162157015781669
 30
0.0
 11
11.69211293554461
 21
0.9162157015781669
 31
0.0
1001
REVIT
1002
{
1070
     2
1000
-2001350
1002
}
  0
SPLINE
  5
9B
330
86
100
AcDbEntity
  8
5024B.65G
100
AcDbSpline
210
0.0
220
0.0
230
1.0
 70
     8
 71
     3
 72
    18
 73
    14
 74
     0
 42
0.000000001
 43
0.0000000001
 40
0.0
 40
0.0
 40
0.0
 40
0.0
 40
0.1666666666666666
 40
0.3333333333333333
 40
0.4166666666666666
 40
0.5
 40
0.5833333333333333
 40
0.625
 40
0.6666666666666666
 40
0.7083333333333333
 40
0.75
 40
0.8333333333333333
 40
1.0
 40
1.0
 40
1.0
 40
1.0
 10
0.6350473311171921
 20
0.9162157015781669
 30
0.0
 10
0.6350473311171917
 20
0.881545963608114
 30
0.0
 10
0.6415754602865639
 20
0.8130062259236296
 30
0.0
 10
0.6663168664596913
 20
0.7284853252558909
 30
0.0
 10
0.6965362182878474
 20
0.6630829011465587
 30
0.0
 10
0.7245915853616881
 20
0.6156129575715842
 30
0.0
 10
0.7526602377292044
 20
0.5776243881885143
 30
0.0
 10
0.7779638619358958
 20
0.5482971972861571
 30
0.0
 10
0.7984861768425719
 20
0.5273133462476971
 30
0.0
 10
0.8205427365107309
 20
0.5070508582309403
 30
0.0
 10
0.851936165341047
 20
0.4807732986049446
 30
0.0
 10
0.9123357273623453
 20
0.4388899120471569
 30
0.0
 10
0.9736862078350508
 20
0.411708748264067
 30
0.0
 10
1.018481330146639
 20
0.3967948762415104
 30
0.0
1001
REVIT
1002
{
1070
     2
1000
-2001350
1002
}
  0
SPLINE
  5
9C
330
86
100
AcDbEntity
  8
5024B.65G
100
AcDbSpline
210
0.0
220
0.0
230
1.0
 70
     8
 71
     3
 72
    13
 73
     9
 74
     0
 42
0.000000001
 43
0.0000000001
 40
0.0
 40
0.0
 40
0.0
 40
0.0
 40
0.1666666666666666
 40
0.3333333333333333
 40
0.5
 40
0.6666666666666666
 40
0.8333333333333332
 40
1.0
 40
1.0
 40
1.0
 40
1.0
 10
1.018481330146639
 20
0.3967948762415104
 30
0.0
 10
1.060370074521039
 20
0.3840100521391319
 30
0.0
 10
1.14457415816038
 20
0.3686456966858664
 30
0.0
 10
1.274787568510193
 20
0.3759561692146665
 30
0.0
 10
1.401069515093254
 20
0.4144002650894971
 30
0.0
 10
1.517206802451416
 20
0.4837277933623205
 30
0.0
 10
1.616156322891818
 20
0.5834078019211331
 30
0.0
 10
1.662766541670808
 20
0.6655194206206469
 30
0.0
 10
1.681835751705161
 20
0.7108711921518986
 30
0.0
1001
REVIT
1002
{
1070
     2
1000
-2001350
1002
}
  0
SPLINE
  5
9D
330
86
100
AcDbEntity
  8
5024B.65G
100
AcDbSpline
210
0.0
220
0.0
230
1.0
 70
     8
 71
     3
 72
    14
 73
    10
 74
     0
 42
0.000000001
 43
0.0000000001
 40
0.0
 40
0.0
 40
0.0
 40
0.0
 40
0.2
 40
0.3
 40
0.4
 40
0.55
 40
0.625
 40
0.7
 40
1.0
 40
1.0
 40
1.0
 40
1.0
 10
1.681835751705161
 20
0.7108711921518986
 30
0.0
 10
1.692601237726591
 20
0.7365902881204674
 30
0.0
 10
1.712167184299137
 20
0.7718078419669393
 30
0.0
 10
1.746436030263432
 20
0.8127898955909452
 30
0.0
 10
1.779926575771316
 20
0.8444718885123755
 30
0.0
 10
1.814846698368058
 20
0.8685919039076914
 30
0.0
 10
1.848832451864871
 20
0.8862044226357895
 30
0.0
 10
1.902287170082794
 20
0.9080155960157068
 30
0.0
 10
1.948902236655803
 20
0.9161578092480302
 30
0.0
 10
1.9874040954055
 20
0.9162157015781634
 30
0.0
1001
REVIT
1002
{
1070
     2
1000
-2001350
1002
}
  0
ENDBLK
  5
88
330
86
100
AcDbEntity
  8
0
100
AcDbBlockEnd
  0
BLOCK
  5
8C
330
8B
100
AcDbEntity
  8
0
100
AcDbBlockBegin
  2
FamilyGeomCombination_27920-Left
 70
     0
 10
0.0
 20
0.0
 30
0.0
  3
FamilyGeomCombination_27920-Left
  1

  0
LINE
  5
9E
330
8B
100
AcDbEntity
  8
5024B.65G
100
AcDbLine
 10
16.68840512683918
 20
-0.0000000000000516
 30
0.0
 11
16.68840512683918
 21
0.6662157015781675
 31
0.0
1001
REVIT
1002
{
1070
     2
1000
-2001350
1002
}
  0
LINE
  5
9F
330
8B
100
AcDbEntity
  8
5024B.65G
100
AcDbLine
 10
-0.6249999999990062
 20
0.3143945909052335
 30
0.0
 11
-0.6249999999990062
 21
-0.0000000000000736
 31
0.0
1001
REVIT
1002
{
1070
     2
1000
-2001350
1002
}
  0
LWPOLYLINE
  5
A0
330
8B
100
AcDbEntity
  8
5024B.65G
100
AcDbPolyline
 90
       40
 70
   128
 43
0.0
 10
16.44840246038581
 20
0.916015728243412
 10
16.45838380033145
 20
0.9154161281538225
 10
16.46833317866138
 20
0.9144178605416344
 10
16.47823467849272
 20
0.9130225224220744
 10
16.48807245953792
 20
0.9112323460384784
 10
16.49783078344594
 20
0.9090501952911756
 10
16.50749403898018
 20
0.9064795611558608
 10
16.51704676699318
 20
0.9035245560987783
 10
16.52647368515793
 20
0.9001899074976519
 10
16.53575971241632
 20
0.8964809500788895
 10
16.54488999310565
 20
0.8924036173831591
 10
16.55384992072453
 20
0.8879644322729893
 10
16.56262516130009
 20
0.8831704964975807
 10
16.57120167631937
 20
0.8780294793315224
 10
16.57956574518791
 20
0.8725496053055879
 10
16.58770398717976
 20
0.8667396410492415
 10
16.59560338284377
 20
0.8606088812659004
 10
16.60325129483202
 20
0.8541671338633921
 10
16.6106354881168
 20
0.8474247042633948
 10
16.61774414956404
 20
0.8403923789149597
 10
16.62456590683187
 20
0.8330814080384957
 10
16.6310898465639
 20
0.8255034876278138
 10
16.63730553184825
 20
0.8176707407390344
 10
16.6432030189144
 20
0.8095956980962826
 10
16.64877287304113
 20
0.8012912780452035
 10
16.65400618364999
 20
0.7927707658863631
 10
16.65889457856039
 20
0.7840477926216034
 10
16.66343023738328
 20
0.7751363131473466
 10
16.6676059040321
 20
0.7660505839297367
 10
16.67141489833096
 20
0.7568051401973369
 10
16.67485112670154
 20
0.7474147726878626
 10
16.67790909191146
 20
0.7378945039861576
 10
16.68058390186872
 20
0.7282595644912617
 10
16.68287127744799
 20
0.7185253680510232
 10
16.68476755933627
 20
0.7087074873032289
 10
16.68626971388708
 20
0.6988216287627051
 10
16.68737533797357
 20
0.6888836076942459
 10
16.68808266283305
 20
0.6789093228115632
 10
16.68839055689665
 20
0.6689147308427355
 10
16.68840512683916
 20
0.6662157015781675
1001
REVIT
1002
{
1070
     2
1000
-2001350
1002
}
  0
LINE
  5
A1
330
8B
100
AcDbEntity
  8
5024B.65G
100
AcDbLine
 10
2.04745237076124
 20
-0.0000000000000519
 30
0.0
 11
0.6637721670383044
 21
-0.0000000000000519
 31
0.0
1001
REVIT
1002
{
1070
     2
1000
-2001350
1002
}
  0
LINE
  5
A2
330
8B
100
AcDbEntity
  8
5024B.65G
100
AcDbLine
 10
0.663772167038303
 20
-0.0000000000000519
 30
0.0
 11
0.0000000000009902
 21
-0.0000000000000519
 31
0.0
1001
REVIT
1002
{
1070
     2
1000
-2001350
1002
}
  0
LINE
  5
A3
330
8B
100
AcDbEntity
  8
5024B.65G
100
AcDbLine
 10
0.0000000000009857
 20
-0.0000000000000735
 30
0.0
 11
-0.6249999999990056
 21
-0.0000000000000735
 31
0.0
1001
REVIT
1002
{
1070
     2
1000
-2001350
1002
}
  0
LINE
  5
A4
330
8B
100
AcDbEntity
  8
5024B.65G
100
AcDbLine
 10
16.68840512683916
 20
-0.0000000000000519
 30
0.0
 11
11.76531345850371
 21
-0.0000000000000519
 31
0.0
1001
REVIT
1002
{
1070
     2
1000
-2001350
1002
}
  0
LINE
  5
A5
330
8B
100
AcDbEntity
  8
5024B.65G
100
AcDbLine
 10
11.76531345850366
 20
-0.0000000000000519
 30
0.0
 11
2.047452370761321
 21
-0.0000000000000519
 31
0.0
1001
REVIT
1002
{
1070
     2
1000
-2001350
1002
}
  0
LINE
  5
A6
330
8B
100
AcDbEntity
  8
5024B.65G
100
AcDbLine
 10
0.6637721670383044
 20
-0.000000000000052
 30
0.0
 11
0.6637721670383044
 21
0.6662157015781667
 31
0.0
1001
REVIT
1002
{
1070
     2
1000
-2001350
1002
}
  0
LINE
  5
A7
330
8B
100
AcDbEntity
  8
5024B.65G
100
AcDbLine
 10
2.047452370761237
 20
-0.0000000000000519
 30
0.0
 11
2.047452370761237
 21
0.6662157015781667
 31
0.0
1001
REVIT
1002
{
1070
     2
1000
-2001350
1002
}
  0
LINE
  5
A8
330
8B
100
AcDbEntity
  8
5024B.65G
100
AcDbLine
 10
-0.6249999999990056
 20
0.3143945909052328
 30
0.0
 11
0.0000000000009817
 21
0.3143945909052328
 31
0.0
1001
REVIT
1002
{
1070
     2
1000
-2001350
1002
}
  0
LINE
  5
A9
330
8B
100
AcDbEntity
  8
5024B.65G
100
AcDbLine
 10
0.0000000000009901
 20
0.3143945909052328
 30
0.0
 11
0.6637721670383031
 21
0.3143945909052328
 31
0.0
1001
REVIT
1002
{
1070
     2
1000
-2001350
1002
}
  0
SPLINE
  5
AA
330
8B
100
AcDbEntity
  8
5024B.65G
100
AcDbSpline
210
0.0
220
0.0
230
1.0
 70
     8
 71
     3
 72
     8
 73
     4
 74
     0
 42
0.000000001
 43
0.0000000001
 40
0.0
 40
0.0
 40
0.0
 40
0.0
 40
0.1482749200827222
 40
0.1482749200827222
 40
0.1482749200827222
 40
0.1482749200827222
 10
0.6637721670383154
 20
0.6662157015781566
 30
0.0
 10
0.6637721670383146
 20
0.685624843229968
 30
0.0
 10
0.666047037191233
 20
0.7050324419800961
 30
0.0
 10
0.6705234832884737
 20
0.7239179737472749
 30
0.0
1001
REVIT
1002
{
1070
     2
1000
-2001350
1002
}
  0
SPLINE
  5
AB
330
8B
100
AcDbEntity
  8
5024B.65G
100
AcDbSpline
210
0.0
220
0.0
230
1.0
 70
     8
 71
     3
 72
     8
 73
     4
 74
     0
 42
0.000000001
 43
0.0000000001
 40
0.1565326639767498
 40
0.1565326639767498
 40
0.1565326639767498
 40
0.1565326639767498
 40
0.1666666666666666
 40
0.1666666666666666
 40
0.1666666666666666
 40
0.1666666666666666
 10
2.054973232003129
 20
0.7270683517056769
 30
0.0
 10
2.055295228171283
 20
0.7283550182309107
 30
0.0
 10
2.055627775114675
 20
0.7296391107409263
 30
0.0
 10
2.05597091418898
 20
0.7309204628537858
 30
0.0
1001
REVIT
1002
{
1070
     2
1000
-2001350
1002
}
  0
SPLINE
  5
AC
330
8B
100
AcDbEntity
  8
5024B.65G
100
AcDbSpline
210
0.0
220
0.0
230
1.0
 70
     8
 71
     3
 72
     8
 73
     4
 74
     0
 42
0.000000001
 43
0.0000000001
 40
0.3103442030185195
 40
0.3103442030185195
 40
0.3103442030185195
 40
0.3103442030185195
 40
0.3333333333333333
 40
0.3333333333333333
 40
0.3333333333333333
 40
0.3333333333333333
 10
2.076583779960355
 20
0.7833175452033143
 30
0.0
 10
2.077989922927047
 20
0.7859762985448969
 30
0.0
 10
2.079444081665652
 20
0.7886096091907075
 30
0.0
 10
2.080946019815136
 20
0.7912157015781585
 30
0.0
1001
REVIT
1002
{
1070
     2
1000
-2001350
1002
}
  0
SPLINE
  5
AD
330
8B
100
AcDbEntity
  8
5024B.65G
100
AcDbSpline
210
0.0
220
0.0
230
1.0
 70
     8
 71
     3
 72
     9
 73
     5
 74
     0
 42
0.000000001
 43
0.0000000001
 40
0.4597836360916088
 40
0.4597836360916088
 40
0.4597836360916088
 40
0.4597836360916088
 40
0.5
 40
0.5381829663722927
 40
0.5381829663722927
 40
0.5381829663722927
 40
0.5381829663722927
 10
2.109925767505876
 20
0.8314799247112908
 30
0.0
 10
2.113398953732173
 20
0.8354299267620138
 30
0.0
 10
2.120361869826092
 20
0.8429150422261024
 30
0.0
 10
2.127831035032634
 20
0.8499563482530444
 30
0.0
 10
2.131574948465489
 20
0.8532730415671483
 30
0.0
1001
REVIT
1002
{
1070
     2
1000
-2001350
1002
}
  0
SPLINE
  5
AE
330
8B
100
AcDbEntity
  8
5024B.65G
100
AcDbSpline
210
0.0
220
0.0
230
1.0
 70
     8
 71
     3
 72
     9
 73
     5
 74
     0
 42
0.000000001
 43
0.0000000001
 40
0.6383933983816848
 40
0.6383933983816848
 40
0.6383933983816848
 40
0.6383933983816848
 40
0.6666666666666666
 40
0.6947985266167964
 40
0.6947985266167964
 40
0.6947985266167964
 40
0.6947985266167964
 10
2.162992502296384
 20
0.8769587627628276
 30
0.0
 10
2.166107651939802
 20
0.8789497605960379
 30
0.0
 10
2.172403302136087
 20
0.8827778083810398
 30
0.0
 10
2.178831428677769
 20
0.886345750701481
 30
0.0
 10
2.182087504293916
 20
0.8880430661446158
 30
0.0
1001
REVIT
1002
{
1070
     2
1000
-2001350
1002
}
  0
SPLINE
  5
AF
330
8B
100
AcDbEntity
  8
5024B.65G
100
AcDbSpline
210
0.0
220
0.0
230
1.0
 70
     8
 71
     3
 72
     9
 73
     5
 74
     0
 42
0.000000001
 43
0.0000000001
 40
0.7998635442582805
 40
0.7998635442582805
 40
0.7998635442582805
 40
0.7998635442582805
 40
0.8333333333333333
 40
0.8677205055869057
 40
0.8677205055869057
 40
0.8677205055869057
 40
0.8677205055869057
 10
2.220192355775946
 20
0.9039635675270039
 30
0.0
 10
2.224353148304812
 20
0.9053184002156211
 30
0.0
 10
2.232803706605155
 20
0.9079961066465491
 30
0.0
 10
2.241493280216712
 20
0.9095938183836459
 30
0.0
 10
2.24593397102507
 20
0.910233795666387
 30
0.0
1001
REVIT
1002
{
1070
     2
1000
-2001350
1002
}
  0
SPLINE
  5
B0
330
8B
100
AcDbEntity
  8
5024B.65G
100
AcDbSpline
210
0.0
220
0.0
230
1.0
 70
     8
 71
     3
 72
    17
 73
    13
 74
     0
 42
0.000000001
 43
0.0000000001
 40
0.0
 40
0.0
 40
0.0
 40
0.0
 40
0.1428571428571428
 40
0.2857142857142857
 40
0.3571428571428571
 40
0.4285714285714286
 40
0.5
 40
0.5714285714285714
 40
0.6428571428571428
 40
0.7142857142857144
 40
0.8571428571428571
 40
1.0
 40
1.0
 40
1.0
 40
1.0
 10
2.047452370761249
 20
0.6662157015781546
 30
0.0
 10
2.047452370761248
 20
0.6869062819672884
 30
0.0
 10
2.052585243743598
 20
0.7277678547182981
 30
0.0
 10
2.070829731188377
 20
0.7749363145899693
 30
0.0
 10
2.091047746094436
 20
0.808257735721712
 30
0.0
 10
2.108673767283296
 20
0.8309318474645465
 30
0.0
 10
2.128308509989172
 20
0.851007520548045
 30
0.0
 10
2.149665698782206
 20
0.8684723633575293
 30
0.0
 10
2.172370181183657
 20
0.8832296410431711
 30
0.0
 10
2.204116828572442
 20
0.899316445930966
 30
0.0
 10
2.245805937981105
 20
0.9126673311598802
 30
0.0
 10
2.280324242044768
 20
0.9162157015781666
 30
0.0
 10
2.297452370761246
 20
0.9162157015781666
 30
0.0
1001
REVIT
1002
{
1070
     2
1000
-2001350
1002
}
  0
SPLINE
  5
B1
330
8B
100
AcDbEntity
  8
5024B.65G
100
AcDbSpline
210
0.0
220
0.0
230
1.0
 70
     8
 71
     3
 72
     9
 73
     5
 74
     0
 42
0.000000001
 43
0.0000000001
 40
0.319005381539129
 40
0.319005381539129
 40
0.319005381539129
 40
0.319005381539129
 40
0.3333333333333333
 40
0.3476966264225773
 40
0.3476966264225773
 40
0.3476966264225773
 40
0.3476966264225773
 10
2.177356401913917
 20
0.8854801622631075
 30
0.0
 10
2.175711440968538
 20
0.8845792384387312
 30
0.0
 10
2.172437713576014
 20
0.8827381244676947
 30
0.0
 10
2.169206589771571
 20
0.8808234702760694
 30
0.0
 10
2.167600081285014
 20
0.8798468183937984
 30
0.0
1001
REVIT
1002
{
1070
     2
1000
-2001350
1002
}
  0
ENDBLK
  5
8D
330
8B
100
AcDbEntity
  8
0
100
AcDbBlockEnd
  0
BLOCK
  5
C7
330
C6
100
AcDbEntity
  8
0
100
AcDbBlockBegin
  2
FamilyGeomCombination_19483-Front
 70
     0
 10
0.0
 20
0.0
 30
0.0
  3
FamilyGeomCombination_19483-Front
  1

  0
LINE
  5
C8
330
C6
100
AcDbEntity
  8
5024B.65G
100
AcDbLine
 10
-6.968769174769156
 20
1.291215701578198
 30
0.0
 11
-6.968769174769156
 21
0.9162157015781678
 31
0.0
1001
REVIT
1002
{
1070
     2
1000
-2001350
1002
}
  0
LINE
  5
C9
330
C6
100
AcDbEntity
  8
5024B.65G
100
AcDbLine
 10
6.968769174770633
 20
0.9162157015781684
 30
0.0
 11
6.968769174770633
 21
1.291215701578198
 31
0.0
1001
REVIT
1002
{
1070
     2
1000
-2001350
1002
}
  0
LWPOLYLINE
  5
CA
330
C6
100
AcDbEntity
  8
5024B.65G
100
AcDbPolyline
 90
       37
 70
   128
 43
0.0
 10
6.626257634961029
 20
2.18749999999995
 10
6.63822053621483
 20
2.187260710068699
 10
6.650164299378574
 20
2.18654322308779
 10
6.662069816979069
 20
2.185348686883337
 10
6.67391804272786
 20
2.183679012458446
 10
6.685690021991233
 20
2.181536870936018
 10
6.697366922113593
 20
2.178925689285525
 10
6.708930062545679
 20
2.175849644840584
 10
6.720360944729473
 20
2.172313658616119
 10
6.731641281691944
 20
2.168323387435787
 10
6.742753027300292
 20
2.163885214882262
 10
6.753678405131917
 20
2.159006241084871
 10
6.764399936912918
 20
2.153694271360898
 10
6.774900470479575
 20
2.147957803728741
 10
6.785163207218193
 20
2.141806015312897
 10
6.795171728939243
 20
2.135248747662521
 10
6.804910024143011
 20
2.128296491007043
 10
6.814362513634567
 20
2.120960367474043
 10
6.823514075447148
 20
2.113252113296218
 10
6.832350069034082
 20
2.105184060035912
 10
6.840856358690536
 20
2.09676911485725
 10
6.849019336167646
 20
2.088020739877423
 10
6.856825942442782
 20
2.078952930630181
 10
6.864263688611232
 20
2.069580193675954
 10
6.871320675865764
 20
2.05991752339446
 10
6.877985614532168
 20
2.04998037799689
 10
6.884247842130366
 20
2.039784654796068
 10
6.890097340432067
 20
2.029346664774143
 10
6.895524751487815
 20
2.018683106488498
 10
6.900521392597714
 20
2.00781103935762
 10
6.905079270201869
 20
1.996747856369668
 10
6.909191092668422
 20
1.985511256257401
 10
6.912850281958554
 20
1.974119215183986
 10
6.916050984150003
 20
1.962589957984968
 10
6.918788078802024
 20
1.950941929012422
 10
6.921057187147074
 20
1.939193762627924
 10
6.922271874494863
 20
1.931564224969331
1001
REVIT
1002
{
1070
     2
1000
-2001350
1002
}
  0
LWPOLYLINE
  5
CB
330
C6
100
AcDbEntity
  8
5024B.65G
100
AcDbPolyline
 90
        9
 70
   128
 43
0.0
 10
6.119780032756692
 20
2.18749999999995
 10
6.125898015176773
 20
2.18749999999995
 10
6.262253642245596
 20
2.18749999999995
 10
6.377204217076555
 20
2.18749999999995
 10
6.470565843271397
 20
2.18749999999995
 10
6.542189162144307
 20
2.18749999999995
 10
6.5919595916639
 20
2.18749999999995
 10
6.619797509760078
 20
2.18749999999995
 10
6.626257634961029
 20
2.18749999999995
1001
REVIT
1002
{
1070
     2
1000
-2001350
1002
}
  0
LWPOLYLINE
  5
CC
330
C6
100
AcDbEntity
  8
5024B.65G
100
AcDbPolyline
 90
        8
 70
   128
 43
0.0
 10
6.626257634961029
 20
2.18749999999995
 10
6.615263944472944
 20
2.18749999999995
 10
6.582300460568281
 20
2.18749999999995
 10
6.527419917789451
 20
2.18749999999995
 10
6.450710113297676
 20
2.18749999999995
 10
6.352293766416255
 20
2.18749999999995
 10
6.232328322305834
 20
2.18749999999995
 10
6.119780032756697
 20
2.18749999999995
1001
REVIT
1002
{
1070
     2
1000
-2001350
1002
}
  0
LWPOLYLINE
  5
CD
330
C6
100
AcDbEntity
  8
5024B.65G
100
AcDbPolyline
 90
        5
 70
   128
 43
0.0
 10
6.922271874494863
 20
1.931564224969331
 10
6.944370568128483
 20
1.755654531315096
 10
6.959417073638057
 20
1.579001834608281
 10
6.967387319824526
 20
1.401888741479719
 10
6.968769174770633
 20
1.291215701578198
1001
REVIT
1002
{
1070
     2
1000
-2001350
1002
}
  0
LWPOLYLINE
  5
CE
330
C6
100
AcDbEntity
  8
5024B.65G
100
AcDbPolyline
 90
       66
 70
   128
 43
0.0
 10
6.119780032756692
 20
2.18749999999995
 10
6.046542884887537
 20
2.18749999999995
 10
5.963632558262922
 20
2.18749999999995
 10
5.871181691718841
 20
2.18749999999995
 10
5.769338186919978
 20
2.18749999999995
 10
5.658264971748546
 20
2.18749999999995
 10
5.538139739654472
 20
2.18749999999995
 10
5.409154665383751
 20
2.18749999999995
 10
5.271516097539872
 20
2.18749999999995
 10
5.125444228470056
 20
2.18749999999995
 10
4.971172742004474
 20
2.18749999999995
 10
4.808948439611982
 20
2.18749999999995
 10
4.639030845570394
 20
2.18749999999995
 10
4.461691791783032
 20
2.18749999999995
 10
4.277214982905632
 20
2.18749999999995
 10
4.085895542479456
 20
2.18749999999995
 10
3.88803954079654
 20
2.18749999999995
 10
3.683963505252552
 20
2.18749999999995
 10
3.47399391397046
 20
2.18749999999995
 10
3.258466673505191
 20
2.18749999999995
 10
3.037726581464801
 20
2.18749999999995
 10
2.812126774907845
 20
2.18749999999995
 10
2.582028165399419
 20
2.18749999999995
 10
2.347798861629656
 20
2.18749999999995
 10
2.109813580518331
 20
2.18749999999995
 10
1.868453047747738
 20
2.18749999999995
 10
1.624103388682807
 20
2.18749999999995
 10
1.377155510652896
 20
2.18749999999995
 10
1.12800447758345
 20
2.18749999999995
 10
0.8770488779779935
 20
2.18749999999995
 10
0.6246901872615526
 20
2.18749999999995
 10
0.3713321255056301
 20
2.18749999999995
 10
0.1173800115621941
 20
2.18749999999995
 10
-0.1367598853600085
 20
2.18749999999995
 10
-0.3906809956395163
 20
2.18749999999995
 10
-0.6439770996668365
 20
2.18749999999995
 10
-0.8962429777091433
 20
2.18749999999995
 10
-1.147075058175418
 20
2.18749999999995
 10
-1.396072063244906
 20
2.18749999999995
 10
-1.642835650826025
 20
2.18749999999995
 10
-1.886971051818735
 20
2.18749999999995
 10
-2.128087701660888
 20
2.18749999999995
 10
-2.365799865148215
 20
2.18749999999995
 10
-2.599727253528357
 20
2.18749999999995
 10
-2.829495632881755
 20
2.18749999999995
 10
-3.054737422816085
 20
2.18749999999995
 10
-3.275092284516467
 20
2.18749999999995
 10
-3.490207697210716
 20
2.18749999999995
 10
-3.699739522127358
 20
2.18749999999995
 10
-3.903352553044266
 20
2.18749999999995
 10
-4.100721052547104
 20
2.18749999999995
 10
-4.291529273139699
 20
2.18749999999995
 10
-4.475471962372688
 20
2.18749999999995
 10
-4.652254851182313
 20
2.18749999999995
 10
-4.821595124658149
 20
2.18749999999995
 10
-4.983221874486633
 20
2.18749999999995
 10
-5.136876532346574
 20
2.18749999999995
 10
-5.282313283563309
 20
2.18749999999995
 10
-5.419299460359743
 20
2.18749999999995
 10
-5.547615914075159
 20
2.18749999999995
 10
-5.667057365756331
 20
2.18749999999995
 10
-5.777432734560055
 20
2.18749999999995
 10
-5.878565443441731
 20
2.18749999999995
 10
-5.970293701640977
 20
2.18749999999995
 10
-6.052470763512325
 20
2.18749999999995
 10
-6.119780032755201
 20
2.18749999999995
1001
REVIT
1002
{
1070
     2
1000
-2001350
1002
}
  0
LWPOLYLINE
  5
CF
330
C6
100
AcDbEntity
  8
5024B.65G
100
AcDbPolyline
 90
       37
 70
   128
 43
0.0
 10
-6.922271874493378
 20
1.931564224969331
 10
-6.920306894659135
 20
1.943367068708465
 10
-6.917871498736531
 20
1.955081893196249
 10
-6.914969582839525
 20
1.966689957212532
 10
-6.91160578941451
 20
1.978172690331143
 10
-6.907785499813395
 20
1.989511722628611
 10
-6.903514825684584
 20
2.000688914072124
 10
-6.898800599195659
 20
2.011686383539712
 10
-6.893650362103356
 20
2.022486537426231
 10
-6.888072353688363
 20
2.033072097789371
 10
-6.882075497574232
 20
2.043426129990684
 10
-6.875669387451484
 20
2.053532069787389
 10
-6.868864271729751
 20
2.063373749831633
 10
-6.861671037142509
 20
2.072935425534788
 10
-6.854101191330622
 20
2.082201800255447
 10
-6.84616684443257
 20
2.091158049770777
 10
-6.837880689710826
 20
2.099789845992118
 10
-6.829255983245325
 20
2.108083379886868
 10
-6.820306522726573
 20
2.116025383569988
 10
-6.811046625382282
 20
2.123603151529789
 10
-6.801491105072861
 20
2.130804560954039
 10
-6.791655248592407
 20
2.137618091123879
 10
-6.781554791213084
 20
2.144032841844512
 10
-6.771205891512048
 20
2.150038550883192
 10
-6.76062510552117
 20
2.155625610386608
 10
-6.749829360240929
 20
2.160785082251396
 10
-6.738835926560795
 20
2.165508712423201
 10
-6.727662391629525
 20
2.169788944101401
 10
-6.716326630719445
 20
2.173618929828382
 10
-6.70484677862984
 20
2.176992542443996
 10
-6.693241200675151
 20
2.179904384887727
 10
-6.681528463304388
 20
2.182349798832824
 10
-6.66972730439875
 20
2.184324872138635
 10
-6.657856603295043
 20
2.185826445109197
 10
-6.645935350582756
 20
2.186852115548078
 10
-6.633982617723159
 20
2.18740024260137
 10
-6.626257634959544
 20
2.18749999999995
1001
REVIT
1002
{
1070
     2
1000
-2001350
1002
}
  0
LWPOLYLINE
  5
D0
330
C6
100
AcDbEntity
  8
5024B.65G
100
AcDbPolyline
 90
        8
 70
   128
 43
0.0
 10
-6.119780032755199
 20
2.18749999999995
 10
-6.257019450891585
 20
2.18749999999995
 10
-6.372862190379702
 20
2.18749999999995
 10
-6.467122927548169
 20
2.18749999999995
 10
-6.539650865325405
 20
2.18749999999995
 10
-6.590329974482762
 20
2.18749999999995
 10
-6.619079179256555
 20
2.18749999999995
 10
-6.626257634959544
 20
2.18749999999995
1001
REVIT
1002
{
1070
     2
1000
-2001350
1002
}
  0
LWPOLYLINE
  5
D1
330
C6
100
AcDbEntity
  8
5024B.65G
100
AcDbPolyline
 90
        8
 70
   128
 43
0.0
 10
-6.626257634959544
 20
2.18749999999995
 10
-6.615263944471462
 20
2.18749999999995
 10
-6.582300460566797
 20
2.18749999999995
 10
-6.527419917787969
 20
2.18749999999995
 10
-6.450710113296191
 20
2.18749999999995
 10
-6.352293766414772
 20
2.18749999999995
 10
-6.232328322304349
 20
2.18749999999995
 10
-6.119780032755197
 20
2.18749999999995
1001
REVIT
1002
{
1070
     2
1000
-2001350
1002
}
  0
LWPOLYLINE
  5
D2
330
C6
100
AcDbEntity
  8
5024B.65G
100
AcDbPolyline
 90
        5
 70
   128
 43
0.0
 10
-6.968769174769148
 20
1.291215701578198
 10
-6.965223564424195
 20
1.468472580793425
 10
-6.954592405609517
 20
1.645445886814691
 10
-6.93689270591136
 20
1.821852500104654
 10
-6.922271874493378
 20
1.931564224969331
1001
REVIT
1002
{
1070
     2
1000
-2001350
1002
}
  0
LINE
  5
D3
330
C6
100
AcDbEntity
  8
5024B.65G
100
AcDbLine
 10
6.44966969314125
 20
0.9162157015781671
 30
0.0
 11
6.968068767632675
 21
0.9162157015781671
 31
0.0
1001
REVIT
1002
{
1070
     2
1000
-2001350
1002
}
  0
LINE
  5
D4
330
C6
100
AcDbEntity
  8
5024B.65G
100
AcDbLine
 10
-6.449669693139824
 20
0.9162157015781671
 30
0.0
 11
6.449669693141277
 21
0.9162157015781671
 31
0.0
1001
REVIT
1002
{
1070
     2
1000
-2001350
1002
}
  0
LINE
  5
D5
330
C6
100
AcDbEntity
  8
5024B.65G
100
AcDbLine
 10
-6.968068767631192
 20
0.9162157015781669
 30
0.0
 11
-6.449669693139822
 21
0.9162157015781669
 31
0.0
1001
REVIT
1002
{
1070
     2
1000
-2001350
1002
}
  0
ENDBLK
  5
D6
330
C6
100
AcDbEntity
  8
0
100
AcDbBlockEnd
  0
BLOCK
  5
D8
330
D7
100
AcDbEntity
  8
0
100
AcDbBlockBegin
  2
FamilyGeomCombination_27920-Front
 70
     0
 10
0.0
 20
0.0
 30
0.0
  3
FamilyGeomCombination_27920-Front
  1

  0
LINE
  5
D9
330
D7
100
AcDbEntity
  8
5024B.65G
100
AcDbLine
 10
-7.06251917476916
 20
0.6662157015781675
 30
0.0
 11
-7.06251917476916
 21
-0.0000000000000516
 31
0.0
1001
REVIT
1002
{
1070
     2
1000
-2001350
1002
}
  0
LINE
  5
DA
330
D7
100
AcDbEntity
  8
5024B.65G
100
AcDbLine
 10
7.062519174770641
 20
-0.0000000000000516
 30
0.0
 11
7.062519174770641
 21
0.6662157015781675
 31
0.0
1001
REVIT
1002
{
1070
     2
1000
-2001350
1002
}
  0
LWPOLYLINE
  5
DB
330
D7
100
AcDbEntity
  8
5024B.65G
100
AcDbPolyline
 90
       38
 70
   128
 43
0.0
 10
-7.062519174769146
 20
0.6662157015781675
 10
-7.062319201434394
 20
0.6762130351248263
 10
-7.061719601344801
 20
0.6861943750704608
 10
-7.060721333732614
 20
0.6961437534003976
 10
-7.059325995613055
 20
0.706045253231729
 10
-7.057535819229457
 20
0.715883034276933
 10
-7.055353668482156
 20
0.7256413581849511
 10
-7.052783034346841
 20
0.7353046137191962
 10
-7.049828029289758
 20
0.744857341732197
 10
-7.046493380688634
 20
0.7542842598969402
 10
-7.042784423269869
 20
0.7635702871553304
 10
-7.038707090574138
 20
0.7727005678446677
 10
-7.034267905463968
 20
0.7816604954635383
 10
-7.029473969688563
 20
0.7904357360391021
 10
-7.024332952522501
 20
0.7990122510583886
 10
-7.018853078496568
 20
0.8073763199269269
 10
-7.013043114240219
 20
0.8155145619187658
 10
-7.006912354456883
 20
0.823413957582785
 10
-7.00047060705437
 20
0.831061869571036
 10
-6.993728177454372
 20
0.8384460628558057
 10
-6.986695852105942
 20
0.8455547243030485
 10
-6.979384881229473
 20
0.8523764815708826
 10
-6.971806960818791
 20
0.8589004213029101
 10
-6.963974213930011
 20
0.8651161065872591
 10
-6.955899171287262
 20
0.8710135936534172
 10
-6.947594751236181
 20
0.8765834477801417
 10
-6.93907423907734
 20
0.8818167583890023
 10
-6.930351265812582
 20
0.8867051532994047
 10
-6.921439786338326
 20
0.891240812122294
 10
-6.912354057120715
 20
0.8954164787711095
 10
-6.903108613388315
 20
0.8992254730699741
 10
-6.89371824587884
 20
0.9026617014405527
 10
-6.884197977177138
 20
0.9057196666504742
 10
-6.874563037682239
 20
0.9083944766077339
 10
-6.864828841242003
 20
0.9106818521869969
 10
-6.855010960494208
 20
0.9125781340752826
 10
-6.845125101953683
 20
0.9140802886260894
 10
-6.835187080885225
 20
0.9151859127125778
1001
REVIT
1002
{
1070
     2
1000
-2001350
1002
}
  0
LWPOLYLINE
  5
DC
330
D7
100
AcDbEntity
  8
5024B.65G
100
AcDbPolyline
 90
        4
 70
   128
 43
0.0
 10
-6.830514445833195
 20
0.9155172718997757
 10
-6.825212796002545
 20
0.9158932375720635
 10
-6.815218204033713
 20
0.9162011316356593
 10
-6.812519174769144
 20
0.9162157015781676
1001
REVIT
1002
{
1070
     2
1000
-2001350
1002
}
  0
LWPOLYLINE
  5
DD
330
D7
100
AcDbEntity
  8
5024B.65G
100
AcDbPolyline
 90
       40
 70
   128
 43
0.0
 10
6.822516508317284
 20
0.9160157282434123
 10
6.832497848262917
 20
0.9154161281538227
 10
6.842447226592858
 20
0.9144178605416344
 10
6.852348726424187
 20
0.9130225224220748
 10
6.862186507469389
 20
0.9112323460384782
 10
6.871944831377406
 20
0.9090501952911756
 10
6.881608086911651
 20
0.9064795611558608
 10
6.891160814924655
 20
0.9035245560987783
 10
6.900587733089398
 20
0.9001899074976517
 10
6.909873760347789
 20
0.8964809500788895
 10
6.919004041037124
 20
0.892403617383159
 10
6.927963968655999
 20
0.8879644322729893
 10
6.93673920923156
 20
0.8831704964975807
 10
6.945315724250848
 20
0.8780294793315222
 10
6.953679793119388
 20
0.8725496053055879
 10
6.961818035111219
 20
0.8667396410492415
 10
6.969717430775242
 20
0.8606088812659004
 10
6.97736534276349
 20
0.8541671338633921
 10
6.98474953604826
 20
0.8474247042633944
 10
6.991858197495506
 20
0.8403923789149597
 10
6.998679954763344
 20
0.8330814080384953
 10
7.005203894495367
 20
0.8255034876278134
 10
7.011419579779716
 20
0.817670740739034
 10
7.017317066845875
 20
0.8095956980962826
 10
7.022886920972602
 20
0.8012912780452035
 10
7.02812023158146
 20
0.7927707658863631
 10
7.033008626491861
 20
0.7840477926216034
 10
7.037544285314756
 20
0.7751363131473466
 10
7.041719951963567
 20
0.7660505839297367
 10
7.045528946262433
 20
0.7568051401973369
 10
7.04896517463301
 20
0.7474147726878626
 10
7.052023139842933
 20
0.7378945039861576
 10
7.054697949800193
 20
0.7282595644912617
 10
7.056985325379454
 20
0.7185253680510236
 10
7.058881607267741
 20
0.7087074873032285
 10
7.06038376181855
 20
0.6988216287627047
 10
7.061489385905039
 20
0.6888836076942456
 10
7.062196710764522
 20
0.6789093228115632
 10
7.062504604828119
 20
0.6689147308427352
 10
7.062519174770628
 20
0.6662157015781675
1001
REVIT
1002
{
1070
     2
1000
-2001350
1002
}
  0
LINE
  5
DE
330
D7
100
AcDbEntity
  8
5024B.65G
100
AcDbLine
 10
7.062519174770632
 20
-0.0000000000000519
 30
0.0
 11
6.522764577126736
 21
-0.0000000000000519
 31
0.0
1001
REVIT
1002
{
1070
     2
1000
-2001350
1002
}
  0
LINE
  5
DF
330
D7
100
AcDbEntity
  8
5024B.65G
100
AcDbLine
 10
6.522764577126722
 20
-0.0000000000000519
 30
0.0
 11
-6.52276457712527
 21
-0.0000000000000519
 31
0.0
1001
REVIT
1002
{
1070
     2
1000
-2001350
1002
}
  0
LINE
  5
E0
330
D7
100
AcDbEntity
  8
5024B.65G
100
AcDbLine
 10
-6.522764577125284
 20
-0.0000000000000519
 30
0.0
 11
-7.062519174769153
 21
-0.0000000000000519
 31
0.0
1001
REVIT
1002
{
1070
     2
1000
-2001350
1002
}
  0
ENDBLK
  5
E1
330
D7
100
AcDbEntity
  8
0
100
AcDbBlockEnd
  0
BLOCK
  5
168
330
167
100
AcDbEntity
  8
0
100
AcDbBlockBegin
  2
AMSTD_Transitional_5024B.65G_Plan View
 70
     0
 10
0.0
 20
0.0
 30
0.0
  3
AMSTD_Transitional_5024B.65G_Plan View
  1

  0
LINE
  5
16A
330
167
100
AcDbEntity
  8
5024B.65G
100
AcDbLine
 10
-3.3749999999999
 20
0.0
 30
0.0
 11
-3.374999999999904
 21
-0.6355014929270624
 31
0.0
1001
REVIT
1002
{
1070
     1
1000
33414
1002
}
1002
{
1070
     2
1000
-2001350
1002
}
  0
LINE
  5
16B
330
167
100
AcDbEntity
  8
5024B.65G
100
AcDbLine
 10
-3.374999999999904
 20
-0.6355014929270624
 30
0.0
 11
-4.517575357266004
 21
-0.6355014929270624
 31
0.0
1001
REVIT
1002
{
1070
     1
1000
33414
1002
}
1002
{
1070
     2
1000
-2001350
1002
}
  0
ARC
  5
16C
330
167
100
AcDbEntity
  8
5024B.65G
100
AcDbCircle
 10
-4.517575357266011
 20
-1.385501492927058
 30
0.0
 40
0.7499999999999979
100
AcDbArc
 50
89.99999999999939
 51
150.7434741302119
1001
REVIT
1002
{
1070
     1
1000
33414
1002
}
1002
{
1070
     2
1000
-2001350
1002
}
  0
ARC
  5
16D
330
167
100
AcDbEntity
  8
5024B.65G
100
AcDbCircle
 10
7.117687903487592
 20
-7.903302982169957
 30
0.0
 40
14.08645707825807
100
AcDbArc
 50
150.7434741302054
 51
155.4360997014471
1001
REVIT
1002
{
1070
     1
1000
33414
1002
}
1002
{
1070
     2
1000
-2001350
1002
}
  0
LINE
  5
16E
330
167
100
AcDbEntity
  8
5024B.65G
100
AcDbLine
 10
-5.693919592625416
 20
-2.047452370760243
 30
0.0
 11
-5.78766959262542
 21
-2.047452370760243
 31
0.0
1001
REVIT
1002
{
1070
     1
1000
33414
1002
}
1002
{
1070
     2
1000
-2001350
1002
}
  0
ARC
  5
16F
330
167
100
AcDbEntity
  8
5024B.65G
100
AcDbCircle
 10
7.023937903482845
 20
-7.903302982167538
 30
0.0
 40
14.08645707825274
100
AcDbArc
 50
155.436099701448
 51
195.9122469947505
1001
REVIT
1002
{
1070
     1
1000
33414
1002
}
1002
{
1070
     2
1000
-2001350
1002
}
  0
ARC
  5
170
330
167
100
AcDbEntity
  8
5024B.65G
100
AcDbCircle
 10
0.0
 20
-9.905747621902456
 30
0.0
 40
6.782657504935701
100
AcDbArc
 50
195.91224699475
 51
344.0877530052483
1001
REVIT
1002
{
1070
     1
1000
33414
1002
}
1002
{
1070
     2
1000
-2001350
1002
}
  0
ARC
  5
171
330
167
100
AcDbEntity
  8
5024B.65G
100
AcDbCircle
 10
-7.023937903482874
 20
-7.903302982167542
 30
0.0
 40
14.08645707825277
100
AcDbArc
 50
344.0877530052483
 51
24.56759544403443
1001
REVIT
1002
{
1070
     1
1000
33414
1002
}
1002
{
1070
     2
1000
-2001350
1002
}
  0
LINE
  5
172
330
167
100
AcDbEntity
  8
5024B.65G
100
AcDbLine
 10
5.787291907800053
 20
-2.046626130918774
 30
0.0
 11
5.693541907800039
 21
-2.046626130918774
 31
0.0
1001
REVIT
1002
{
1070
     1
1000
33414
1002
}
1002
{
1070
     2
1000
-2001350
1002
}
  0
ARC
  5
173
330
167
100
AcDbEntity
  8
5024B.65G
100
AcDbCircle
 10
-7.117687903483016
 20
-7.903302982167602
 30
0.0
 40
14.0864570782529
100
AcDbArc
 50
24.56759544403398
 51
29.25652586979456
1001
REVIT
1002
{
1070
     1
1000
33414
1002
}
1002
{
1070
     2
1000
-2001350
1002
}
  0
ARC
  5
174
330
167
100
AcDbEntity
  8
5024B.65G
100
AcDbCircle
 10
4.517575357266011
 20
-1.385501492927062
 30
0.0
 40
0.7499999999999992
100
AcDbArc
 50
29.25652586979456
 51
90.00000000000019
1001
REVIT
1002
{
1070
     1
1000
33414
1002
}
1002
{
1070
     2
1000
-2001350
1002
}
  0
LINE
  5
175
330
167
100
AcDbEntity
  8
5024B.65G
100
AcDbLine
 10
4.517575357266004
 20
-0.6355014929270624
 30
0.0
 11
3.3749999999999
 21
-0.6355014929270624
 31
0.0
1001
REVIT
1002
{
1070
     1
1000
33414
1002
}
1002
{
1070
     2
1000
-2001350
1002
}
  0
LINE
  5
176
330
167
100
AcDbEntity
  8
5024B.65G
100
AcDbLine
 10
3.3749999999999
 20
-0.6355014929270624
 30
0.0
 11
3.3749999999999
 21
0.0
 31
0.0
1001
REVIT
1002
{
1070
     1
1000
33414
1002
}
1002
{
1070
     2
1000
-2001350
1002
}
  0
ARC
  5
177
330
167
100
AcDbEntity
  8
5024B.65G
100
AcDbCircle
 10
2.7499999999999
 20
0.0
 30
0.0
 40
0.625
100
AcDbArc
 50
359.9999999999992
 51
179.9999999999996
1001
REVIT
1002
{
1070
     1
1000
33414
1002
}
1002
{
1070
     2
1000
-2001350
1002
}
  0
LINE
  5
178
330
167
100
AcDbEntity
  8
5024B.65G
100
AcDbLine
 10
2.1249999999999
 20
0.0
 30
0.0
 11
2.1249999999999
 21
-0.6355014929270624
 31
0.0
1001
REVIT
1002
{
1070
     1
1000
33414
1002
}
1002
{
1070
     2
1000
-2001350
1002
}
  0
LINE
  5
179
330
167
100
AcDbEntity
  8
5024B.65G
100
AcDbLine
 10
2.1249999999999
 20
-0.6355014929270624
 30
0.0
 11
-2.1249999999999
 21
-0.6355014929270624
 31
0.0
1001
REVIT
1002
{
1070
     1
1000
33414
1002
}
1002
{
1070
     2
1000
-2001350
1002
}
  0
LINE
  5
17A
330
167
100
AcDbEntity
  8
5024B.65G
100
AcDbLine
 10
-2.1249999999999
 20
-0.6355014929270624
 30
0.0
 11
-2.1249999999999
 21
0.0
 31
0.0
1001
REVIT
1002
{
1070
     1
1000
33414
1002
}
1002
{
1070
     2
1000
-2001350
1002
}
  0
ARC
  5
17B
330
167
100
AcDbEntity
  8
5024B.65G
100
AcDbCircle
 10
-2.7499999999999
 20
0.0
 30
0.0
 40
0.6249999999999999
100
AcDbArc
 50
359.9999999999996
 51
179.9999999999996
1001
REVIT
1002
{
1070
     1
1000
33414
1002
}
1002
{
1070
     2
1000
-2001350
1002
}
  0
LINE
  5
17C
330
167
100
AcDbEntity
  8
5024B.65G
100
AcDbLine
 10
-2.1249999999999
 20
-0.6355014929270624
 30
0.0
 11
-3.374999999999904
 21
-0.6355014929270624
 31
0.0
1001
REVIT
1002
{
1070
     1
1000
34007
1002
}
1002
{
1070
     2
1000
-2001350
1002
}
  0
LINE
  5
17D
330
167
100
AcDbEntity
  8
5024B.65G
100
AcDbLine
 10
2.1249999999999
 20
-0.6355014929270624
 30
0.0
 11
3.3749999999999
 21
-0.6355014929270695
 31
0.0
1001
REVIT
1002
{
1070
     1
1000
34063
1002
}
1002
{
1070
     2
1000
-2001350
1002
}
  0
ARC
  5
17E
330
167
100
AcDbEntity
  8
5024B.65G
100
AcDbCircle
 10
7.117687903482867
 20
-7.903302982167542
 30
0.0
 40
14.08645707825276
100
AcDbArc
 50
155.4360997014484
 51
195.6028819773188
1001
REVIT
1002
{
1070
     1
1000
34093
1002
}
1002
{
1070
     2
1000
-2001350
1002
}
  0
ARC
  5
17F
330
167
100
AcDbEntity
  8
5024B.65G
100
AcDbCircle
 10
-7.117687903482867
 20
-7.903302982167542
 30
0.0
 40
14.08645707825276
100
AcDbArc
 50
344.397118022677
 51
24.56759544403398
1001
REVIT
1002
{
1070
     1
1000
34099
1002
}
1002
{
1070
     2
1000
-2001350
1002
}
  0
ARC
  5
180
330
167
100
AcDbEntity
  8
5024B.65G
100
AcDbCircle
 10
-0.000000000000739
 20
-9.890983087278989
 30
0.0
 40
6.696439940813747
100
AcDbArc
 50
195.6028819773188
 51
344.3971180226774
1001
REVIT
1002
{
1070
     1
1000
34105
1002
}
1002
{
1070
     2
1000
-2001350
1002
}
  0
ENDBLK
  5
169
330
167
100
AcDbEntity
  8
0
100
AcDbBlockEnd
  0
BLOCK
  5
183
330
182
100
AcDbEntity
  8
0
100
AcDbBlockBegin
  2
AMSTD_Transitional_5024B.65G_Front View
 70
     0
 10
0.0
 20
0.0
 30
0.0
  3
AMSTD_Transitional_5024B.65G_Front View
  1

  0
LINE
  5
185
330
182
100
AcDbEntity
  8
5024B.65G
100
AcDbLine
 10
-6.968769174769882
 20
1.29121570157825
 30
0.0
 11
-6.968769174769882
 21
0.9162157015782195
 31
0.0
1001
REVIT
1002
{
1070
     2
1000
-2001350
1002
}
  0
LINE
  5
186
330
182
100
AcDbEntity
  8
5024B.65G
100
AcDbLine
 10
6.96876917476991
 20
0.91621570157822
 30
0.0
 11
6.96876917476991
 21
1.29121570157825
 31
0.0
1001
REVIT
1002
{
1070
     2
1000
-2001350
1002
}
  0
LWPOLYLINE
  5
187
330
182
100
AcDbEntity
  8
5024B.65G
100
AcDbPolyline
 90
       37
 70
   128
 43
0.0
 10
6.626257634960303
 20
2.187500000000002
 10
6.638220536214106
 20
2.187260710068751
 10
6.650164299377848
 20
2.186543223087842
 10
6.662069816978345
 20
2.185348686883389
 10
6.673918042727137
 20
2.183679012458498
 10
6.685690021990509
 20
2.18153687093607
 10
6.69736692211287
 20
2.178925689285577
 10
6.708930062544958
 20
2.175849644840636
 10
6.720360944728746
 20
2.172313658616171
 10
6.731641281691217
 20
2.168323387435839
 10
6.742753027299563
 20
2.163885214882314
 10
6.753678405131189
 20
2.159006241084923
 10
6.764399936912191
 20
2.15369427136095
 10
6.774900470478847
 20
2.147957803728793
 10
6.785163207217472
 20
2.141806015312949
 10
6.79517172893852
 20
2.135248747662573
 10
6.804910024142287
 20
2.128296491007095
 10
6.814362513633845
 20
2.120960367474095
 10
6.823514075446425
 20
2.11325211329627
 10
6.83235006903336
 20
2.105184060035964
 10
6.840856358689812
 20
2.096769114857301
 10
6.849019336166925
 20
2.088020739877475
 10
6.856825942442057
 20
2.078952930630233
 10
6.864263688610506
 20
2.069580193676006
 10
6.871320675865042
 20
2.059917523394512
 10
6.877985614531446
 20
2.049980377996942
 10
6.884247842129639
 20
2.03978465479612
 10
6.890097340431346
 20
2.029346664774195
 10
6.895524751487094
 20
2.01868310648855
 10
6.900521392596992
 20
2.007811039357672
 10
6.905079270201142
 20
1.99674785636972
 10
6.909191092667697
 20
1.985511256257453
 10
6.91285028195783
 20
1.974119215184038
 10
6.916050984149279
 20
1.96258995798502
 10
6.918788078801298
 20
1.950941929012474
 10
6.921057187146352
 20
1.939193762627975
 10
6.922271874494136
 20
1.931564224969383
1001
REVIT
1002
{
1070
     2
1000
-2001350
1002
}
  0
LWPOLYLINE
  5
188
330
182
100
AcDbEntity
  8
5024B.65G
100
AcDbPolyline
 90
        9
 70
   128
 43
0.0
 10
6.119780032755969
 20
2.187500000000002
 10
6.125898015176048
 20
2.187500000000002
 10
6.262253642244871
 20
2.187500000000002
 10
6.377204217075828
 20
2.187500000000002
 10
6.470565843270669
 20
2.187500000000002
 10
6.542189162143579
 20
2.187500000000002
 10
6.591959591663176
 20
2.187500000000002
 10
6.619797509759351
 20
2.187500000000002
 10
6.626257634960303
 20
2.187500000000002
1001
REVIT
1002
{
1070
     2
1000
-2001350
1002
}
  0
LWPOLYLINE
  5
189
330
182
100
AcDbEntity
  8
5024B.65G
100
AcDbPolyline
 90
        8
 70
   128
 43
0.0
 10
6.626257634960303
 20
2.187500000000002
 10
6.615263944472218
 20
2.187500000000002
 10
6.582300460567559
 20
2.187500000000002
 10
6.527419917788726
 20
2.187500000000002
 10
6.450710113296949
 20
2.187500000000002
 10
6.352293766415527
 20
2.187500000000002
 10
6.232328322305107
 20
2.187500000000002
 10
6.119780032755976
 20
2.187500000000002
1001
REVIT
1002
{
1070
     2
1000
-2001350
1002
}
  0
LWPOLYLINE
  5
18A
330
182
100
AcDbEntity
  8
5024B.65G
100
AcDbPolyline
 90
        5
 70
   128
 43
0.0
 10
6.922271874494136
 20
1.931564224969383
 10
6.944370568127759
 20
1.755654531315148
 10
6.959417073637332
 20
1.579001834608333
 10
6.967387319823799
 20
1.401888741479771
 10
6.96876917476991
 20
1.29121570157825
1001
REVIT
1002
{
1070
     2
1000
-2001350
1002
}
  0
LWPOLYLINE
  5
18B
330
182
100
AcDbEntity
  8
5024B.65G
100
AcDbPolyline
 90
       66
 70
   128
 43
0.0
 10
6.119780032755969
 20
2.187500000000002
 10
6.046542884886811
 20
2.187500000000002
 10
5.963632558262197
 20
2.187500000000002
 10
5.871181691718113
 20
2.187500000000002
 10
5.769338186919256
 20
2.187500000000002
 10
5.658264971747819
 20
2.187500000000002
 10
5.53813973965375
 20
2.187500000000002
 10
5.409154665383027
 20
2.187500000000002
 10
5.271516097539148
 20
2.187500000000002
 10
5.125444228469334
 20
2.187500000000002
 10
4.971172742003751
 20
2.187500000000002
 10
4.808948439611256
 20
2.187500000000002
 10
4.639030845569671
 20
2.187500000000002
 10
4.461691791782307
 20
2.187500000000002
 10
4.277214982904908
 20
2.187500000000002
 10
4.085895542478731
 20
2.187500000000002
 10
3.888039540795816
 20
2.187500000000002
 10
3.683963505251824
 20
2.187500000000002
 10
3.473993913969735
 20
2.187500000000002
 10
3.258466673504464
 20
2.187500000000002
 10
3.037726581464077
 20
2.187500000000002
 10
2.81212677490712
 20
2.187500000000002
 10
2.582028165398696
 20
2.187500000000002
 10
2.34779886162893
 20
2.187500000000002
 10
2.109813580517609
 20
2.187500000000002
 10
1.868453047747017
 20
2.187500000000002
 10
1.62410338868208
 20
2.187500000000002
 10
1.377155510652173
 20
2.187500000000002
 10
1.128004477582724
 20
2.187500000000002
 10
0.8770488779772698
 20
2.187500000000002
 10
0.6246901872608284
 20
2.187500000000002
 10
0.3713321255049067
 20
2.187500000000002
 10
0.1173800115614689
 20
2.187500000000002
 10
-0.1367598853607319
 20
2.187500000000002
 10
-0.3906809956402419
 20
2.187500000000002
 10
-0.6439770996675627
 20
2.187500000000002
 10
-0.8962429777098677
 20
2.187500000000002
 10
-1.147075058176142
 20
2.187500000000002
 10
-1.396072063245632
 20
2.187500000000002
 10
-1.64283565082675
 20
2.187500000000002
 10
-1.886971051819461
 20
2.187500000000002
 10
-2.128087701661613
 20
2.187500000000002
 10
-2.36579986514894
 20
2.187500000000002
 10
-2.599727253529081
 20
2.187500000000002
 10
-2.82949563288248
 20
2.187500000000002
 10
-3.05473742281681
 20
2.187500000000002
 10
-3.275092284517192
 20
2.187500000000002
 10
-3.490207697211442
 20
2.187500000000002
 10
-3.699739522128083
 20
2.187500000000002
 10
-3.903352553044992
 20
2.187500000000002
 10
-4.100721052547829
 20
2.187500000000002
 10
-4.291529273140422
 20
2.187500000000002
 10
-4.475471962373411
 20
2.187500000000002
 10
-4.652254851183037
 20
2.187500000000002
 10
-4.821595124658873
 20
2.187500000000002
 10
-4.983221874487359
 20
2.187500000000002
 10
-5.136876532347301
 20
2.187500000000002
 10
-5.282313283564032
 20
2.187500000000002
 10
-5.41929946036047
 20
2.187500000000002
 10
-5.547615914075883
 20
2.187500000000002
 10
-5.667057365757056
 20
2.187500000000002
 10
-5.777432734560779
 20
2.187500000000002
 10
-5.878565443442454
 20
2.187500000000002
 10
-5.970293701641701
 20
2.187500000000002
 10
-6.052470763513049
 20
2.187500000000002
 10
-6.119780032755926
 20
2.187500000000002
1001
REVIT
1002
{
1070
     2
1000
-2001350
1002
}
  0
LWPOLYLINE
  5
18C
330
182
100
AcDbEntity
  8
5024B.65G
100
AcDbPolyline
 90
       37
 70
   128
 43
0.0
 10
-6.922271874494104
 20
1.931564224969383
 10
-6.920306894659859
 20
1.943367068708517
 10
-6.917871498737255
 20
1.955081893196302
 10
-6.914969582840249
 20
1.966689957212584
 10
-6.911605789415233
 20
1.978172690331195
 10
-6.907785499814121
 20
1.989511722628662
 10
-6.903514825685309
 20
2.000688914072175
 10
-6.898800599196384
 20
2.011686383539764
 10
-6.893650362104082
 20
2.022486537426283
 10
-6.888072353689089
 20
2.033072097789423
 10
-6.882075497574959
 20
2.043426129990736
 10
-6.875669387452209
 20
2.053532069787441
 10
-6.868864271730476
 20
2.063373749831685
 10
-6.861671037143235
 20
2.07293542553484
 10
-6.854101191331345
 20
2.082201800255499
 10
-6.846166844433295
 20
2.091158049770829
 10
-6.83788068971155
 20
2.09978984599217
 10
-6.829255983246049
 20
2.10808337988692
 10
-6.8203065227273
 20
2.11602538357004
 10
-6.811046625383006
 20
2.123603151529841
 10
-6.801491105073587
 20
2.130804560954091
 10
-6.79165524859313
 20
2.137618091123931
 10
-6.781554791213807
 20
2.144032841844564
 10
-6.771205891512771
 20
2.150038550883244
 10
-6.760625105521896
 20
2.15562561038666
 10
-6.749829360241655
 20
2.160785082251448
 10
-6.73883592656152
 20
2.165508712423253
 10
-6.72766239163025
 20
2.169788944101453
 10
-6.716326630720168
 20
2.173618929828434
 10
-6.704846778630564
 20
2.176992542444048
 10
-6.693241200675878
 20
2.179904384887779
 10
-6.681528463305113
 20
2.182349798832876
 10
-6.669727304399476
 20
2.184324872138687
 10
-6.657856603295769
 20
2.185826445109249
 10
-6.645935350583481
 20
2.18685211554813
 10
-6.633982617723884
 20
2.187400242601422
 10
-6.626257634960268
 20
2.187500000000002
1001
REVIT
1002
{
1070
     2
1000
-2001350
1002
}
  0
LWPOLYLINE
  5
18D
330
182
100
AcDbEntity
  8
5024B.65G
100
AcDbPolyline
 90
        8
 70
   128
 43
0.0
 10
-6.119780032755926
 20
2.187500000000002
 10
-6.257019450892308
 20
2.187500000000002
 10
-6.372862190380427
 20
2.187500000000002
 10
-6.467122927548892
 20
2.187500000000002
 10
-6.53965086532613
 20
2.187500000000002
 10
-6.590329974483488
 20
2.187500000000002
 10
-6.61907917925728
 20
2.187500000000002
 10
-6.626257634960268
 20
2.187500000000002
1001
REVIT
1002
{
1070
     2
1000
-2001350
1002
}
  0
LWPOLYLINE
  5
18E
330
182
100
AcDbEntity
  8
5024B.65G
100
AcDbPolyline
 90
        8
 70
   128
 43
0.0
 10
-6.626257634960268
 20
2.187500000000002
 10
-6.615263944472186
 20
2.187500000000002
 10
-6.582300460567523
 20
2.187500000000002
 10
-6.527419917788694
 20
2.187500000000002
 10
-6.450710113296917
 20
2.187500000000002
 10
-6.352293766415499
 20
2.187500000000002
 10
-6.232328322305072
 20
2.187500000000002
 10
-6.119780032755922
 20
2.187500000000002
1001
REVIT
1002
{
1070
     2
1000
-2001350
1002
}
  0
LWPOLYLINE
  5
18F
330
182
100
AcDbEntity
  8
5024B.65G
100
AcDbPolyline
 90
        5
 70
   128
 43
0.0
 10
-6.968769174769875
 20
1.29121570157825
 10
-6.96522356442492
 20
1.468472580793477
 10
-6.954592405610242
 20
1.645445886814743
 10
-6.936892705912086
 20
1.821852500104706
 10
-6.922271874494104
 20
1.931564224969383
1001
REVIT
1002
{
1070
     2
1000
-2001350
1002
}
  0
LINE
  5
190
330
182
100
AcDbEntity
  8
5024B.65G
100
AcDbLine
 10
6.449669693140528
 20
0.9162157015782192
 30
0.0
 11
6.968068767631947
 21
0.9162157015782192
 31
0.0
1001
REVIT
1002
{
1070
     2
1000
-2001350
1002
}
  0
LINE
  5
191
330
182
100
AcDbEntity
  8
5024B.65G
100
AcDbLine
 10
-6.449669693140549
 20
0.9162157015782192
 30
0.0
 11
6.449669693140556
 21
0.9162157015782192
 31
0.0
1001
REVIT
1002
{
1070
     2
1000
-2001350
1002
}
  0
LINE
  5
192
330
182
100
AcDbEntity
  8
5024B.65G
100
AcDbLine
 10
-6.968068767631915
 20
0.9162157015782186
 30
0.0
 11
-6.449669693140549
 21
0.9162157015782186
 31
0.0
1001
REVIT
1002
{
1070
     2
1000
-2001350
1002
}
  0
LINE
  5
193
330
182
100
AcDbEntity
  8
5024B.65G
100
AcDbLine
 10
-7.062519174769885
 20
0.6662157015782193
 30
0.0
 11
-7.062519174769885
 21
0.0000000000000003
 31
0.0
1001
REVIT
1002
{
1070
     2
1000
-2001350
1002
}
  0
LINE
  5
194
330
182
100
AcDbEntity
  8
5024B.65G
100
AcDbLine
 10
7.062519174769917
 20
0.0000000000000003
 30
0.0
 11
7.062519174769917
 21
0.6662157015782193
 31
0.0
1001
REVIT
1002
{
1070
     2
1000
-2001350
1002
}
  0
LWPOLYLINE
  5
195
330
182
100
AcDbEntity
  8
5024B.65G
100
AcDbPolyline
 90
       38
 70
   128
 43
0.0
 10
-7.062519174769871
 20
0.6662157015782193
 10
-7.062319201435119
 20
0.6762130351248781
 10
-7.061719601345526
 20
0.6861943750705127
 10
-7.06072133373334
 20
0.6961437534004494
 10
-7.059325995613779
 20
0.7060452532317809
 10
-7.057535819230182
 20
0.7158830342769848
 10
-7.055353668482879
 20
0.7256413581850029
 10
-7.052783034347566
 20
0.7353046137192481
 10
-7.049828029290484
 20
0.7448573417322489
 10
-7.046493380689359
 20
0.7542842598969921
 10
-7.042784423270596
 20
0.7635702871553823
 10
-7.038707090574863
 20
0.7727005678447196
 10
-7.034267905464695
 20
0.7816604954635902
 10
-7.029473969689288
 20
0.7904357360391538
 10
-7.024332952523224
 20
0.7990122510584405
 10
-7.018853078497294
 20
0.8073763199269786
 10
-7.013043114240943
 20
0.8155145619188177
 10
-7.006912354457607
 20
0.8234139575828368
 10
-7.000470607055095
 20
0.8310618695710878
 10
-6.993728177455096
 20
0.8384460628558576
 10
-6.986695852106667
 20
0.8455547243031004
 10
-6.979384881230199
 20
0.8523764815709345
 10
-6.971806960819517
 20
0.8589004213029619
 10
-6.963974213930736
 20
0.8651161065873109
 10
-6.955899171287988
 20
0.871013593653469
 10
-6.947594751236906
 20
0.8765834477801936
 10
-6.939074239078067
 20
0.8818167583890542
 10
-6.930351265813307
 20
0.8867051532994565
 10
-6.92143978633905
 20
0.8912408121223458
 10
-6.91235405712144
 20
0.8954164787711613
 10
-6.90310861338904
 20
0.899225473070026
 10
-6.893718245879565
 20
0.9026617014406046
 10
-6.884197977177862
 20
0.9057196666505261
 10
-6.874563037682964
 20
0.9083944766077859
 10
-6.864828841242726
 20
0.9106818521870486
 10
-6.855010960494933
 20
0.9125781340753345
 10
-6.845125101954408
 20
0.9140802886261413
 10
-6.835187080885951
 20
0.9151859127126297
1001
REVIT
1002
{
1070
     2
1000
-2001350
1002
}
  0
LWPOLYLINE
  5
196
330
182
100
AcDbEntity
  8
5024B.65G
100
AcDbPolyline
 90
        4
 70
   128
 43
0.0
 10
-6.830514445833919
 20
0.9155172718998276
 10
-6.82521279600327
 20
0.9158932375721152
 10
-6.815218204034437
 20
0.916201131635711
 10
-6.812519174769867
 20
0.9162157015782195
1001
REVIT
1002
{
1070
     2
1000
-2001350
1002
}
  0
LWPOLYLINE
  5
197
330
182
100
AcDbEntity
  8
5024B.65G
100
AcDbPolyline
 90
       40
 70
   128
 43
0.0
 10
6.82251650831656
 20
0.9160157282434642
 10
6.832497848262192
 20
0.9154161281538744
 10
6.842447226592135
 20
0.9144178605416865
 10
6.852348726423464
 20
0.9130225224221264
 10
6.862186507468663
 20
0.9112323460385301
 10
6.87194483137668
 20
0.9090501952912275
 10
6.881608086910922
 20
0.9064795611559127
 10
6.891160814923928
 20
0.9035245560988302
 10
6.900587733088677
 20
0.9001899074977036
 10
6.909873760347061
 20
0.8964809500789414
 10
6.919004041036401
 20
0.8924036173832108
 10
6.927963968655276
 20
0.8879644322730412
 10
6.936739209230836
 20
0.8831704964976324
 10
6.945315724250122
 20
0.8780294793315741
 10
6.953679793118659
 20
0.8725496053056398
 10
6.961818035110496
 20
0.8667396410492933
 10
6.969717430774515
 20
0.8606088812659521
 10
6.977365342762766
 20
0.854167133863444
 10
6.984749536047537
 20
0.8474247042634463
 10
6.991858197494785
 20
0.8403923789150116
 10
6.998679954762621
 20
0.8330814080385472
 10
7.005203894494641
 20
0.8255034876278653
 10
7.011419579778994
 20
0.8176707407390859
 10
7.017317066845151
 20
0.8095956980963345
 10
7.022886920971878
 20
0.8012912780452554
 10
7.028120231580736
 20
0.7927707658864148
 10
7.033008626491138
 20
0.7840477926216553
 10
7.037544285314034
 20
0.7751363131473985
 10
7.041719951962839
 20
0.7660505839297885
 10
7.045528946261711
 20
0.7568051401973888
 10
7.048965174632286
 20
0.7474147726879144
 10
7.052023139842212
 20
0.7378945039862094
 10
7.054697949799468
 20
0.7282595644913135
 10
7.056985325378725
 20
0.7185253680510754
 10
7.058881607267018
 20
0.7087074873032804
 10
7.060383761817824
 20
0.6988216287627566
 10
7.061489385904316
 20
0.6888836076942974
 10
7.062196710763799
 20
0.678909322811615
 10
7.062504604827395
 20
0.668914730842787
 10
7.062519174769903
 20
0.6662157015782193
1001
REVIT
1002
{
1070
     2
1000
-2001350
1002
}
  0
LINE
  5
198
330
182
100
AcDbEntity
  8
5024B.65G
100
AcDbLine
 10
7.06251917476991
 20
0.0
 30
0.0
 11
6.522764577126011
 21
0.0
 31
0.0
1001
REVIT
1002
{
1070
     2
1000
-2001350
1002
}
  0
LINE
  5
199
330
182
100
AcDbEntity
  8
5024B.65G
100
AcDbLine
 10
6.522764577125997
 20
0.0
 30
0.0
 11
-6.522764577125997
 21
0.0
 31
0.0
1001
REVIT
1002
{
1070
     2
1000
-2001350
1002
}
  0
LINE
  5
19A
330
182
100
AcDbEntity
  8
5024B.65G
100
AcDbLine
 10
-6.522764577126007
 20
0.0
 30
0.0
 11
-7.062519174769878
 21
0.0
 31
0.0
1001
REVIT
1002
{
1070
     2
1000
-2001350
1002
}
  0
ENDBLK
  5
184
330
182
100
AcDbEntity
  8
0
100
AcDbBlockEnd
  0
BLOCK
  5
19D
330
19C
100
AcDbEntity
  8
0
100
AcDbBlockBegin
  2
AMSTD_Transitional_5024B.65G_Side View
 70
     0
 10
0.0
 20
0.0
 30
0.0
  3
AMSTD_Transitional_5024B.65G_Side View
  1

  0
LINE
  5
19F
330
19C
100
AcDbEntity
  8
5024B.65G
100
AcDbLine
 10
0.6350473311162049
 20
1.291215701578272
 30
0.0
 11
0.6350473311162049
 21
0.9162157015782412
 31
0.0
1001
REVIT
1002
{
1070
     2
1000
-2001350
1002
}
  0
LINE
  5
1A0
330
19C
100
AcDbEntity
  8
5024B.65G
100
AcDbLine
 10
16.58742302809277
 20
0.9162157015782417
 30
0.0
 11
16.58742302809277
 21
1.291215701578272
 31
0.0
1001
REVIT
1002
{
1070
     2
1000
-2001350
1002
}
  0
LWPOLYLINE
  5
1A1
330
19C
100
AcDbEntity
  8
5024B.65G
100
AcDbPolyline
 90
       37
 70
   128
 43
0.0
 10
0.6815446313919793
 20
1.931564224969405
 10
0.6835096112262243
 20
1.943367068708539
 10
0.6859450071488276
 20
1.955081893196323
 10
0.6888469230458334
 20
1.966689957212606
 10
0.69221071647085
 20
1.978172690331217
 10
0.6960310060719657
 20
1.989511722628684
 10
0.7003016802007771
 20
2.000688914072197
 10
0.7050159066896989
 20
2.011686383539786
 10
0.7101661437820006
 20
2.022486537426305
 10
0.7157441521969936
 20
2.033072097789445
 10
0.7217410083111276
 20
2.043426129990757
 10
0.7281471184338742
 20
2.053532069787463
 10
0.7349522341556068
 20
2.063373749831706
 10
0.742145468742848
 20
2.072935425534862
 10
0.749715314554738
 20
2.08220180025552
 10
0.7576496614527848
 20
2.091158049770851
 10
0.7659358161745296
 20
2.099789845992192
 10
0.7745605226400301
 20
2.108083379886942
 10
0.7835099831587833
 20
2.116025383570061
 10
0.7927698805030765
 20
2.123603151529863
 10
0.8023254008124958
 20
2.130804560954113
 10
0.8121612572929493
 20
2.137618091123953
 10
0.8222617146722726
 20
2.144032841844586
 10
0.832610614373312
 20
2.150038550883266
 10
0.8431914003641871
 20
2.155625610386682
 10
0.8539871456444281
 20
2.160785082251469
 10
0.864980579324559
 20
2.165508712423274
 10
0.8761541142558328
 20
2.169788944101475
 10
0.8874898751659152
 20
2.173618929828455
 10
0.898969727255519
 20
2.17699254244407
 10
0.9105753052102052
 20
2.179904384887801
 10
0.9222880425809698
 20
2.182349798832898
 10
0.9340892014866071
 20
2.184324872138708
 10
0.9459599025903138
 20
2.185826445109272
 10
0.9578811553026014
 20
2.186852115548151
 10
0.9698338881621957
 20
2.187400242601444
 10
0.9775588709258151
 20
2.187500000000024
1001
REVIT
1002
{
1070
     2
1000
-2001350
1002
}
  0
LWPOLYLINE
  5
1A2
330
19C
100
AcDbEntity
  8
5024B.65G
100
AcDbPolyline
 90
        5
 70
   128
 43
0.0
 10
0.6350473311162049
 20
1.291215701578272
 10
0.6385929414611624
 20
1.468472580793498
 10
0.6492241002758412
 20
1.645445886814764
 10
0.6669237999739935
 20
1.821852500104728
 10
0.6815446313919758
 20
1.931564224969405
1001
REVIT
1002
{
1070
     2
1000
-2001350
1002
}
  0
LWPOLYLINE
  5
1A3
330
19C
100
AcDbEntity
  8
5024B.65G
100
AcDbPolyline
 90
       37
 70
   128
 43
0.0
 10
16.24491148828316
 20
2.187500000000024
 10
16.25687438953696
 20
2.187260710068773
 10
16.26881815270071
 20
2.186543223087864
 10
16.2807236703012
 20
2.18534868688341
 10
16.29257189604999
 20
2.18367901245852
 10
16.30434387531336
 20
2.181536870936092
 10
16.31602077543572
 20
2.178925689285599
 10
16.32758391586781
 20
2.175849644840658
 10
16.3390147980516
 20
2.172313658616193
 10
16.35029513501407
 20
2.168323387435861
 10
16.36140688062242
 20
2.163885214882335
 10
16.37233225845404
 20
2.159006241084945
 10
16.38305379023505
 20
2.153694271360972
 10
16.39355432380171
 20
2.147957803728815
 10
16.40381706054032
 20
2.141806015312971
 10
16.41382558226138
 20
2.135248747662595
 10
16.42356387746514
 20
2.128296491007117
 10
16.4330163669567
 20
2.120960367474117
 10
16.44216792876928
 20
2.113252113296292
 10
16.45100392235621
 20
2.105184060035986
 10
16.45951021201267
 20
2.096769114857323
 10
16.46767318948978
 20
2.088020739877497
 10
16.47547979576491
 20
2.078952930630255
 10
16.48291754193337
 20
2.069580193676028
 10
16.48997452918789
 20
2.059917523394534
 10
16.4966394678543
 20
2.049980377996964
 10
16.5029016954525
 20
2.039784654796141
 10
16.5087511937542
 20
2.029346664774216
 10
16.51417860480995
 20
2.018683106488572
 10
16.51917524591984
 20
2.007811039357694
 10
16.523733123524
 20
1.996747856369741
 10
16.52784494599055
 20
1.985511256257474
 10
16.53150413528068
 20
1.974119215184059
 10
16.53470483747213
 20
1.962589957985042
 10
16.53744193212416
 20
1.950941929012496
 10
16.5397110404692
 20
1.939193762627997
 10
16.54092572781699
 20
1.931564224969405
1001
REVIT
1002
{
1070
     2
1000
-2001350
1002
}
  0
LWPOLYLINE
  5
1A4
330
19C
100
AcDbEntity
  8
5024B.65G
100
AcDbPolyline
 90
       34
 70
   128
 43
0.0
 10
11.60259237082947
 20
2.187500000000024
 10
11.84334710720766
 20
2.187500000000024
 10
12.08358264833032
 20
2.187500000000024
 10
12.32031049788493
 20
2.187500000000024
 10
12.55315194181145
 20
2.187500000000024
 10
12.78173448346978
 20
2.187500000000024
 10
13.00569243955495
 20
2.187500000000024
 10
13.22466752511237
 20
2.187500000000024
 10
13.43830942671733
 20
2.187500000000024
 10
13.64627636290179
 20
2.187500000000024
 10
13.84823563093176
 20
2.187500000000024
 10
14.04386413906074
 20
2.187500000000024
 10
14.23284892340757
 20
2.187500000000024
 10
14.41488764863192
 20
2.187500000000024
 10
14.58968909160627
 20
2.187500000000024
 10
14.75697360731085
 20
2.187500000000024
 10
14.91647357620599
 20
2.187500000000024
 10
15.06793383236631
 20
2.187500000000024
 10
15.21111207169175
 20
2.187500000000024
 10
15.34577923954244
 20
2.187500000000024
 10
15.4717198971773
 20
2.187500000000024
 10
15.58873256641002
 20
2.187500000000024
 10
15.69663005193119
 20
2.187500000000024
 10
15.79523974078088
 20
2.187500000000024
 10
15.88440387849255
 20
2.187500000000024
 10
15.96397982146651
 20
2.187500000000024
 10
16.03384026516932
 20
2.187500000000024
 10
16.09387344779382
 20
2.187500000000024
 10
16.1439833290542
 20
2.187500000000024
 10
16.18408974382997
 20
2.187500000000024
 10
16.21412853041308
 20
2.187500000000024
 10
16.23405163315293
 20
2.187500000000024
 10
16.24382717933518
 20
2.187500000000024
 10
16.24491148828316
 20
2.187500000000024
1001
REVIT
1002
{
1070
     2
1000
-2001350
1002
}
  0
LWPOLYLINE
  5
1A5
330
19C
100
AcDbEntity
  8
5024B.65G
100
AcDbPolyline
 90
       34
 70
   128
 43
0.0
 10
16.24491148828316
 20
2.187500000000024
 10
16.23982902327857
 20
2.187500000000024
 10
16.22458975912462
 20
2.187500000000024
 10
16.19921807539308
 20
2.187500000000024
 10
16.16375456136558
 20
2.187500000000024
 10
16.11825595109942
 20
2.187500000000024
 10
16.06279503266517
 20
2.187500000000024
 10
15.99746053170131
 20
2.187500000000024
 10
15.92235696947208
 20
2.187500000000024
 10
15.83760449565581
 20
2.187500000000024
 10
15.74333869613105
 20
2.187500000000024
 10
15.63971037606807
 20
2.187500000000024
 10
15.52688531867278
 20
2.187500000000024
 10
15.40504401996895
 20
2.187500000000024
 10
15.27438140004307
 20
2.187500000000024
 10
15.13510649121384
 20
2.187500000000024
 10
14.98744210362496
 20
2.187500000000024
 10
14.83162446879654
 20
2.187500000000024
 10
14.66790286170497
 20
2.187500000000024
 10
14.49653920199619
 20
2.187500000000024
 10
14.31780763497011
 20
2.187500000000024
 10
14.13199409300658
 20
2.187500000000024
 10
13.93939583813465
 20
2.187500000000024
 10
13.74032098647669
 20
2.187500000000024
 10
13.5350880153283
 20
2.187500000000024
 10
13.32402525366261
 20
2.187500000000024
 10
13.10747035687398
 20
2.187500000000024
 10
12.88576976660136
 20
2.187500000000024
 10
12.65927815649557
 20
2.187500000000024
 10
12.42835786481716
 20
2.187500000000024
 10
12.19337831477243
 20
2.187500000000024
 10
11.95471542351517
 20
2.187500000000024
 10
11.71275100075935
 20
2.187500000000024
 10
11.59998820013526
 20
2.187500000000024
1001
REVIT
1002
{
1070
     2
1000
-2001350
1002
}
  0
LWPOLYLINE
  5
1A6
330
19C
100
AcDbEntity
  8
5024B.65G
100
AcDbPolyline
 90
        5
 70
   128
 43
0.0
 10
16.54092572781699
 20
1.931564224969405
 10
16.56302442145062
 20
1.755654531315169
 10
16.57807092696019
 20
1.579001834608355
 10
16.58604117314665
 20
1.401888741479793
 10
16.58742302809276
 20
1.291215701578272
1001
REVIT
1002
{
1070
     2
1000
-2001350
1002
}
  0
LWPOLYLINE
  5
1A7
330
19C
100
AcDbEntity
  8
5024B.65G
100
AcDbPolyline
 90
       21
 70
   128
 43
0.0
 10
11.59998820013526
 20
2.187500000000024
 10
11.06767371716584
 20
2.187500000000024
 10
10.53029691605017
 20
2.187500000000024
 10
9.988717485035779
 20
2.187500000000024
 10
9.443801835681497
 20
2.187500000000024
 10
8.896421716783825
 20
2.187500000000024
 10
8.347452819764791
 20
2.187500000000024
 10
7.797773377752516
 20
2.187500000000024
 10
7.248262760595524
 20
2.187500000000024
 10
6.699800068058589
 20
2.187500000000024
 10
6.15326272345063
 20
2.187500000000024
 10
5.609525069934608
 20
2.187500000000024
 10
5.069456971764967
 20
2.187500000000024
 10
4.533922422690398
 20
2.187500000000024
 10
4.003778163748137
 20
2.187500000000024
 10
3.47987231266109
 20
2.187500000000024
 10
2.963043007030369
 20
2.187500000000024
 10
2.454117063493949
 20
2.187500000000024
 10
1.953908654996407
 20
2.187500000000024
 10
1.46321800828591
 20
2.187500000000024
 10
1.185885444058101
 20
2.187500000000024
1001
REVIT
1002
{
1070
     2
1000
-2001350
1002
}
  0
LWPOLYLINE
  5
1A8
330
19C
100
AcDbEntity
  8
5024B.65G
100
AcDbPolyline
 90
       28
 70
   128
 43
0.0
 10
1.185885444058101
 20
2.187500000000024
 10
1.171828480020145
 20
2.187500000000024
 10
1.158112620659682
 20
2.187500000000024
 10
1.144759808425792
 20
2.187500000000024
 10
1.131791404969604
 20
2.187500000000024
 10
1.119228156970198
 20
2.187500000000024
 10
1.107090162944359
 20
2.187500000000024
 10
1.095396841093233
 20
2.187500000000024
 10
1.084166898237331
 20
2.187500000000024
 10
1.073418299889631
 20
2.187500000000024
 10
1.063168241514581
 20
2.187500000000024
 10
1.053433121019018
 20
2.187500000000024
 10
1.044228512519019
 20
2.187500000000024
 10
1.035569141424637
 20
2.187500000000024
 10
1.027468860882393
 20
2.187500000000024
 10
1.019940629613181
 20
2.187500000000024
 10
1.012996491181098
 20
2.187500000000024
 10
1.006647554726299
 20
2.187500000000024
 10
1.000903977192745
 20
2.187500000000024
 10
0.9957749470792585
 20
2.187500000000024
 10
0.9912686697398811
 20
2.187500000000024
 10
0.987392354257075
 20
2.187500000000024
 10
0.984152201908703
 20
2.187500000000024
 10
0.9815533962473317
 20
2.187500000000024
 10
0.9796000948076333
 20
2.187500000000024
 10
0.9782954224552327
 20
2.187500000000024
 10
0.9776414663875776
 20
2.187500000000024
 10
0.9775588709258116
 20
2.187500000000024
1001
REVIT
1002
{
1070
     2
1000
-2001350
1002
}
  0
LINE
  5
1A9
330
19C
100
AcDbEntity
  8
5024B.65G
100
AcDbLine
 10
11.69211293554363
 20
0.9162157015782407
 30
0.0
 11
16.58742302809275
 21
0.9162157015782407
 31
0.0
1001
REVIT
1002
{
1070
     2
1000
-2001350
1002
}
  0
LINE
  5
1AA
330
19C
100
AcDbEntity
  8
5024B.65G
100
AcDbLine
 10
1.987404095404436
 20
0.9162157015782405
 30
0.0
 11
11.69211293554363
 21
0.9162157015782405
 31
0.0
1001
REVIT
1002
{
1070
     2
1000
-2001350
1002
}
  0
SPLINE
  5
1AB
330
19C
100
AcDbEntity
  8
5024B.65G
100
AcDbSpline
210
0.0
220
0.0
230
1.0
 70
     8
 71
     3
 72
    18
 73
    14
 74
     0
 42
0.000000001
 43
0.0000000001
 40
0.0
 40
0.0
 40
0.0
 40
0.0
 40
0.1666666666666666
 40
0.3333333333333333
 40
0.4166666666666666
 40
0.5
 40
0.5833333333333333
 40
0.625
 40
0.6666666666666666
 40
0.7083333333333333
 40
0.75
 40
0.8333333333333333
 40
1.0
 40
1.0
 40
1.0
 40
1.0
 10
0.6350473311162084
 20
0.9162157015782405
 30
0.0
 10
0.6350473311162084
 20
0.8815459636081875
 30
0.0
 10
0.6415754602855799
 20
0.8130062259237032
 30
0.0
 10
0.6663168664587076
 20
0.7284853252559645
 30
0.0
 10
0.6965362182868624
 20
0.6630829011466322
 30
0.0
 10
0.7245915853607024
 20
0.6156129575716576
 30
0.0
 10
0.7526602377282217
 20
0.5776243881885878
 30
0.0
 10
0.7779638619349108
 20
0.5482971972862307
 30
0.0
 10
0.798486176841589
 20
0.5273133462477706
 30
0.0
 10
0.820542736509747
 20
0.5070508582310139
 30
0.0
 10
0.8519361653400636
 20
0.4807732986050181
 30
0.0
 10
0.9123357273613628
 20
0.4388899120472305
 30
0.0
 10
0.9736862078340671
 20
0.4117087482641406
 30
0.0
 10
1.018481330145654
 20
0.396794876241584
 30
0.0
1001
REVIT
1002
{
1070
     2
1000
-2001350
1002
}
  0
SPLINE
  5
1AC
330
19C
100
AcDbEntity
  8
5024B.65G
100
AcDbSpline
210
0.0
220
0.0
230
1.0
 70
     8
 71
     3
 72
    13
 73
     9
 74
     0
 42
0.000000001
 43
0.0000000001
 40
0.0
 40
0.0
 40
0.0
 40
0.0
 40
0.1666666666666666
 40
0.3333333333333333
 40
0.5
 40
0.6666666666666666
 40
0.8333333333333332
 40
1.0
 40
1.0
 40
1.0
 40
1.0
 10
1.018481330145654
 20
0.396794876241584
 30
0.0
 10
1.060370074520054
 20
0.3840100521392054
 30
0.0
 10
1.144574158159397
 20
0.3686456966859399
 30
0.0
 10
1.274787568509211
 20
0.37595616921474
 30
0.0
 10
1.40106951509227
 20
0.4144002650895706
 30
0.0
 10
1.517206802450431
 20
0.483727793362394
 30
0.0
 10
1.616156322890834
 20
0.5834078019212066
 30
0.0
 10
1.662766541669824
 20
0.6655194206207204
 30
0.0
 10
1.681835751704177
 20
0.7108711921519721
 30
0.0
1001
REVIT
1002
{
1070
     2
1000
-2001350
1002
}
  0
SPLINE
  5
1AD
330
19C
100
AcDbEntity
  8
5024B.65G
100
AcDbSpline
210
0.0
220
0.0
230
1.0
 70
     8
 71
     3
 72
    14
 73
    10
 74
     0
 42
0.000000001
 43
0.0000000001
 40
0.0
 40
0.0
 40
0.0
 40
0.0
 40
0.2
 40
0.3
 40
0.4
 40
0.55
 40
0.625
 40
0.7
 40
1.0
 40
1.0
 40
1.0
 40
1.0
 10
1.681835751704177
 20
0.7108711921519721
 30
0.0
 10
1.692601237725607
 20
0.7365902881205409
 30
0.0
 10
1.712167184298152
 20
0.7718078419670129
 30
0.0
 10
1.746436030262447
 20
0.8127898955910188
 30
0.0
 10
1.779926575770332
 20
0.844471888512449
 30
0.0
 10
1.814846698367073
 20
0.8685919039077647
 30
0.0
 10
1.848832451863888
 20
0.886204422635863
 30
0.0
 10
1.902287170081809
 20
0.9080155960157803
 30
0.0
 10
1.948902236654818
 20
0.9161578092481036
 30
0.0
 10
1.987404095404516
 20
0.9162157015782369
 30
0.0
1001
REVIT
1002
{
1070
     2
1000
-2001350
1002
}
  0
LINE
  5
1AE
330
19C
100
AcDbEntity
  8
5024B.65G
100
AcDbLine
 10
16.68840512683819
 20
0.0000000000000219
 30
0.0
 11
16.68840512683819
 21
0.666215701578241
 31
0.0
1001
REVIT
1002
{
1070
     2
1000
-2001350
1002
}
  0
LINE
  5
1AF
330
19C
100
AcDbEntity
  8
5024B.65G
100
AcDbLine
 10
-0.6249999999999894
 20
0.3143945909053071
 30
0.0
 11
-0.6249999999999894
 21
-0.0000000000000001
 31
0.0
1001
REVIT
1002
{
1070
     2
1000
-2001350
1002
}
  0
LWPOLYLINE
  5
1B0
330
19C
100
AcDbEntity
  8
5024B.65G
100
AcDbPolyline
 90
       40
 70
   128
 43
0.0
 10
16.44840246038483
 20
0.9160157282434855
 10
16.45838380033046
 20
0.9154161281538961
 10
16.4683331786604
 20
0.914417860541708
 10
16.47823467849173
 20
0.9130225224221478
 10
16.48807245953694
 20
0.9112323460385519
 10
16.49783078344495
 20
0.9090501952912489
 10
16.5074940389792
 20
0.9064795611559343
 10
16.5170467669922
 20
0.9035245560988517
 10
16.52647368515695
 20
0.9001899074977254
 10
16.53575971241534
 20
0.896480950078963
 10
16.54488999310467
 20
0.8924036173832327
 10
16.55384992072354
 20
0.8879644322730628
 10
16.5626251612991
 20
0.8831704964976541
 10
16.57120167631839
 20
0.878029479331596
 10
16.57956574518693
 20
0.8725496053056613
 10
16.58770398717877
 20
0.866739641049315
 10
16.59560338284279
 20
0.8606088812659738
 10
16.60325129483104
 20
0.8541671338634657
 10
16.61063548811581
 20
0.8474247042634683
 10
16.61774414956305
 20
0.8403923789150333
 10
16.62456590683089
 20
0.8330814080385692
 10
16.63108984656292
 20
0.8255034876278873
 10
16.63730553184727
 20
0.8176707407391077
 10
16.64320301891342
 20
0.8095956980963562
 10
16.64877287304014
 20
0.8012912780452769
 10
16.654006183649
 20
0.7927707658864365
 10
16.65889457855941
 20
0.7840477926216769
 10
16.6634302373823
 20
0.77513631314742
 10
16.66760590403111
 20
0.7660505839298102
 10
16.67141489832998
 20
0.7568051401974105
 10
16.67485112670055
 20
0.747414772687936
 10
16.67790909191048
 20
0.7378945039862311
 10
16.68058390186774
 20
0.7282595644913351
 10
16.682871277447
 20
0.7185253680510967
 10
16.68476755933529
 20
0.7087074873033023
 10
16.68626971388609
 20
0.6988216287627786
 10
16.68737533797258
 20
0.6888836076943194
 10
16.68808266283207
 20
0.6789093228116366
 10
16.68839055689566
 20
0.668914730842809
 10
16.68840512683817
 20
0.666215701578241
1001
REVIT
1002
{
1070
     2
1000
-2001350
1002
}
  0
LINE
  5
1B1
330
19C
100
AcDbEntity
  8
5024B.65G
100
AcDbLine
 10
2.047452370760256
 20
0.0000000000000216
 30
0.0
 11
0.6637721670373189
 21
0.0000000000000216
 31
0.0
1001
REVIT
1002
{
1070
     2
1000
-2001350
1002
}
  0
LINE
  5
1B2
330
19C
100
AcDbEntity
  8
5024B.65G
100
AcDbLine
 10
0.6637721670373189
 20
0.0000000000000216
 30
0.0
 11
0.0000000000000071
 21
0.0000000000000216
 31
0.0
1001
REVIT
1002
{
1070
     2
1000
-2001350
1002
}
  0
LINE
  5
1B3
330
19C
100
AcDbEntity
  8
5024B.65G
100
AcDbLine
 10
0.0
 20
0.0
 30
0.0
 11
-0.6249999999999894
 21
0.0
 31
0.0
1001
REVIT
1002
{
1070
     2
1000
-2001350
1002
}
  0
LINE
  5
1B4
330
19C
100
AcDbEntity
  8
5024B.65G
100
AcDbLine
 10
16.68840512683817
 20
0.0000000000000216
 30
0.0
 11
11.76531345850272
 21
0.0000000000000216
 31
0.0
1001
REVIT
1002
{
1070
     2
1000
-2001350
1002
}
  0
LINE
  5
1B5
330
19C
100
AcDbEntity
  8
5024B.65G
100
AcDbLine
 10
11.76531345850267
 20
0.0000000000000216
 30
0.0
 11
2.047452370760336
 21
0.0000000000000216
 31
0.0
1001
REVIT
1002
{
1070
     2
1000
-2001350
1002
}
  0
LINE
  5
1B6
330
19C
100
AcDbEntity
  8
5024B.65G
100
AcDbLine
 10
0.6637721670373189
 20
0.0000000000000216
 30
0.0
 11
0.6637721670373189
 21
0.6662157015782402
 31
0.0
1001
REVIT
1002
{
1070
     2
1000
-2001350
1002
}
  0
LINE
  5
1B7
330
19C
100
AcDbEntity
  8
5024B.65G
100
AcDbLine
 10
2.047452370760254
 20
0.0000000000000216
 30
0.0
 11
2.047452370760254
 21
0.6662157015782402
 31
0.0
1001
REVIT
1002
{
1070
     2
1000
-2001350
1002
}
  0
LINE
  5
1B8
330
19C
100
AcDbEntity
  8
5024B.65G
100
AcDbLine
 10
-0.6249999999999894
 20
0.3143945909053064
 30
0.0
 11
-0.0000000000000036
 21
0.3143945909053064
 31
0.0
1001
REVIT
1002
{
1070
     2
1000
-2001350
1002
}
  0
LINE
  5
1B9
330
19C
100
AcDbEntity
  8
5024B.65G
100
AcDbLine
 10
0.0000000000000071
 20
0.3143945909053064
 30
0.0
 11
0.6637721670373189
 21
0.3143945909053064
 31
0.0
1001
REVIT
1002
{
1070
     2
1000
-2001350
1002
}
  0
SPLINE
  5
1BA
330
19C
100
AcDbEntity
  8
5024B.65G
100
AcDbSpline
210
0.0
220
0.0
230
1.0
 70
     8
 71
     3
 72
     8
 73
     4
 74
     0
 42
0.000000001
 43
0.0000000001
 40
0.0
 40
0.0
 40
0.0
 40
0.0
 40
0.1482749200827222
 40
0.1482749200827222
 40
0.1482749200827222
 40
0.1482749200827222
 10
0.6637721670373296
 20
0.6662157015782301
 30
0.0
 10
0.6637721670373296
 20
0.6856248432300415
 30
0.0
 10
0.6660470371902499
 20
0.7050324419801696
 30
0.0
 10
0.6705234832874894
 20
0.7239179737473484
 30
0.0
1001
REVIT
1002
{
1070
     2
1000
-2001350
1002
}
  0
SPLINE
  5
1BB
330
19C
100
AcDbEntity
  8
5024B.65G
100
AcDbSpline
210
0.0
220
0.0
230
1.0
 70
     8
 71
     3
 72
     8
 73
     4
 74
     0
 42
0.000000001
 43
0.0000000001
 40
0.1565326639767498
 40
0.1565326639767498
 40
0.1565326639767498
 40
0.1565326639767498
 40
0.1666666666666666
 40
0.1666666666666666
 40
0.1666666666666666
 40
0.1666666666666666
 10
2.054973232002145
 20
0.7270683517057504
 30
0.0
 10
2.055295228170299
 20
0.7283550182309842
 30
0.0
 10
2.055627775113691
 20
0.7296391107409998
 30
0.0
 10
2.055970914187996
 20
0.7309204628538593
 30
0.0
1001
REVIT
1002
{
1070
     2
1000
-2001350
1002
}
  0
SPLINE
  5
1BC
330
19C
100
AcDbEntity
  8
5024B.65G
100
AcDbSpline
210
0.0
220
0.0
230
1.0
 70
     8
 71
     3
 72
     8
 73
     4
 74
     0
 42
0.000000001
 43
0.0000000001
 40
0.3103442030185195
 40
0.3103442030185195
 40
0.3103442030185195
 40
0.3103442030185195
 40
0.3333333333333333
 40
0.3333333333333333
 40
0.3333333333333333
 40
0.3333333333333333
 10
2.076583779959371
 20
0.7833175452033877
 30
0.0
 10
2.077989922926063
 20
0.7859762985449703
 30
0.0
 10
2.079444081664668
 20
0.788609609190781
 30
0.0
 10
2.080946019814152
 20
0.791215701578232
 30
0.0
1001
REVIT
1002
{
1070
     2
1000
-2001350
1002
}
  0
SPLINE
  5
1BD
330
19C
100
AcDbEntity
  8
5024B.65G
100
AcDbSpline
210
0.0
220
0.0
230
1.0
 70
     8
 71
     3
 72
     9
 73
     5
 74
     0
 42
0.000000001
 43
0.0000000001
 40
0.4597836360916088
 40
0.4597836360916088
 40
0.4597836360916088
 40
0.4597836360916088
 40
0.5
 40
0.5381829663722927
 40
0.5381829663722927
 40
0.5381829663722927
 40
0.5381829663722927
 10
2.109925767504892
 20
0.8314799247113644
 30
0.0
 10
2.11339895373119
 20
0.8354299267620872
 30
0.0
 10
2.120361869825108
 20
0.8429150422261757
 30
0.0
 10
2.12783103503165
 20
0.8499563482531179
 30
0.0
 10
2.131574948464505
 20
0.8532730415672219
 30
0.0
1001
REVIT
1002
{
1070
     2
1000
-2001350
1002
}
  0
SPLINE
  5
1BE
330
19C
100
AcDbEntity
  8
5024B.65G
100
AcDbSpline
210
0.0
220
0.0
230
1.0
 70
     8
 71
     3
 72
     9
 73
     5
 74
     0
 42
0.000000001
 43
0.0000000001
 40
0.6383933983816848
 40
0.6383933983816848
 40
0.6383933983816848
 40
0.6383933983816848
 40
0.6666666666666666
 40
0.6947985266167964
 40
0.6947985266167964
 40
0.6947985266167964
 40
0.6947985266167964
 10
2.1629925022954
 20
0.8769587627629011
 30
0.0
 10
2.166107651938817
 20
0.8789497605961114
 30
0.0
 10
2.172403302135103
 20
0.8827778083811134
 30
0.0
 10
2.178831428676785
 20
0.8863457507015546
 30
0.0
 10
2.182087504292931
 20
0.8880430661446892
 30
0.0
1001
REVIT
1002
{
1070
     2
1000
-2001350
1002
}
  0
SPLINE
  5
1BF
330
19C
100
AcDbEntity
  8
5024B.65G
100
AcDbSpline
210
0.0
220
0.0
230
1.0
 70
     8
 71
     3
 72
     9
 73
     5
 74
     0
 42
0.000000001
 43
0.0000000001
 40
0.7998635442582805
 40
0.7998635442582805
 40
0.7998635442582805
 40
0.7998635442582805
 40
0.8333333333333333
 40
0.8677205055869057
 40
0.8677205055869057
 40
0.8677205055869057
 40
0.8677205055869057
 10
2.220192355774962
 20
0.9039635675270773
 30
0.0
 10
2.224353148303828
 20
0.9053184002156944
 30
0.0
 10
2.232803706604171
 20
0.9079961066466227
 30
0.0
 10
2.241493280215728
 20
0.9095938183837194
 30
0.0
 10
2.245933971024086
 20
0.9102337956664603
 30
0.0
1001
REVIT
1002
{
1070
     2
1000
-2001350
1002
}
  0
SPLINE
  5
1C0
330
19C
100
AcDbEntity
  8
5024B.65G
100
AcDbSpline
210
0.0
220
0.0
230
1.0
 70
     8
 71
     3
 72
    17
 73
    13
 74
     0
 42
0.000000001
 43
0.0000000001
 40
0.0
 40
0.0
 40
0.0
 40
0.0
 40
0.1428571428571428
 40
0.2857142857142857
 40
0.3571428571428571
 40
0.4285714285714286
 40
0.5
 40
0.5714285714285714
 40
0.6428571428571428
 40
0.7142857142857144
 40
0.8571428571428571
 40
1.0
 40
1.0
 40
1.0
 40
1.0
 10
2.047452370760264
 20
0.6662157015782281
 30
0.0
 10
2.047452370760264
 20
0.686906281967362
 30
0.0
 10
2.052585243742614
 20
0.7277678547183716
 30
0.0
 10
2.070829731187393
 20
0.7749363145900428
 30
0.0
 10
2.091047746093451
 20
0.8082577357217854
 30
0.0
 10
2.108673767282311
 20
0.83093184746462
 30
0.0
 10
2.128308509988187
 20
0.8510075205481186
 30
0.0
 10
2.149665698781223
 20
0.8684723633576028
 30
0.0
 10
2.172370181182673
 20
0.8832296410432446
 30
0.0
 10
2.204116828571457
 20
0.8993164459310396
 30
0.0
 10
2.24580593798012
 20
0.9126673311599537
 30
0.0
 10
2.280324242043784
 20
0.9162157015782399
 30
0.0
 10
2.297452370760263
 20
0.9162157015782399
 30
0.0
1001
REVIT
1002
{
1070
     2
1000
-2001350
1002
}
  0
SPLINE
  5
1C1
330
19C
100
AcDbEntity
  8
5024B.65G
100
AcDbSpline
210
0.0
220
0.0
230
1.0
 70
     8
 71
     3
 72
     9
 73
     5
 74
     0
 42
0.000000001
 43
0.0000000001
 40
0.319005381539129
 40
0.319005381539129
 40
0.319005381539129
 40
0.319005381539129
 40
0.3333333333333333
 40
0.3476966264225773
 40
0.3476966264225773
 40
0.3476966264225773
 40
0.3476966264225773
 10
2.177356401912934
 20
0.8854801622631811
 30
0.0
 10
2.175711440967553
 20
0.8845792384388047
 30
0.0
 10
2.17243771357503
 20
0.8827381244677681
 30
0.0
 10
2.169206589770588
 20
0.880823470276143
 30
0.0
 10
2.16760008128403
 20
0.8798468183938719
 30
0.0
1001
REVIT
1002
{
1070
     2
1000
-2001350
1002
}
  0
ENDBLK
  5
19E
330
19C
100
AcDbEntity
  8
0
100
AcDbBlockEnd
  0
ENDSEC
  0
SECTION
  2
ENTITIES
  0
INSERT
  5
181
330
70
100
AcDbEntity
  8
0
100
AcDbBlockReference
  2
AMSTD_Transitional_5024B.65G_Plan View
 10
30.60440482535693
 20
33.03094696771311
 30
0.0
  0
INSERT
  5
19B
330
70
100
AcDbEntity
  8
0
100
AcDbBlockReference
  2
AMSTD_Transitional_5024B.65G_Front View
 10
30.60440482535766
 20
0.0927385637096499
 30
0.0
  0
INSERT
  5
1C2
330
70
100
AcDbEntity
  8
0
100
AcDbBlockReference
  2
AMSTD_Transitional_5024B.65G_Side View
 10
-6.288888958905417
 20
0.0927385637095767
 30
0.0
  0
ENDSEC
  0
SECTION
  2
OBJECTS
  0
DICTIONARY
  5
C
330
0
100
AcDbDictionary
281
     1
  3
ACAD_BACKGROUND
350
122
  3
ACAD_CIP_PREVIOUS_PRODUCT_INFO
350
79
  3
ACAD_COLOR
350
63
  3
ACAD_DETAILVIEWSTYLE
350
6A
  3
ACAD_GROUP
350
D
  3
ACAD_IMAGE_VARS
350
7A
  3
ACAD_LAYOUT
350
62
  3
ACAD_MATERIAL
350
10
  3
ACAD_MLEADERSTYLE
350
66
  3
ACAD_MLINESTYLE
350
5F
  3
ACAD_PLOTSETTINGS
350
61
  3
ACAD_PLOTSTYLENAME
350
E
  3
ACAD_SCALELIST
350
42
  3
ACAD_SECTIONVIEWSTYLE
350
68
  3
ACAD_TABLESTYLE
350
64
  3
ACAD_VISUALSTYLE
350
29
  3
ACDB_RECOMPOSE_DATA
350
1C8
  3
AcDbVariableDictionary
350
BC
  3
REVIT_DICTIONARY
350
B2
  0
DICTIONARY
  5
B5
330
70
100
AcDbDictionary
280
     1
281
     1
  3
ACAD_SORTENTS
360
B6
  0
DICTIONARY
  5
122
102
{ACAD_REACTORS
330
C
102
}
330
C
100
AcDbDictionary
281
     1
  0
XRECORD
  5
79
102
{ACAD_REACTORS
330
C
102
}
330
C
100
AcDbXrecord
280
     1
300
ACD
300
2014
300
86063ACD_2014_0F
  0
DICTIONARY
  5
63
102
{ACAD_REACTORS
330
C
102
}
330
C
100
AcDbDictionary
281
     1
  0
DICTIONARY
  5
6A
102
{ACAD_REACTORS
330
C
102
}
330
C
100
AcDbDictionary
281
     1
  3
Imperial24
350
6B
  0
DICTIONARY
  5
D
102
{ACAD_REACTORS
330
C
102
}
330
C
100
AcDbDictionary
281
     1
  0
RASTERVARIABLES
  5
7A
102
{ACAD_REACTORS
330
C
102
}
330
C
100
AcDbRasterVariables
 90
        0
 70
     0
 71
     1
 72
     5
  0
DICTIONARY
  5
62
102
{ACAD_REACTORS
330
C
102
}
330
C
100
AcDbDictionary
281
     1
  3
Layout1
350
6F
  3
Layout2
350
77
  3
Model
350
73
  0
DICTIONARY
  5
10
102
{ACAD_REACTORS
330
C
102
}
330
C
100
AcDbDictionary
281
     1
  3
ByBlock
350
19
  3
ByLayer
350
11
  3
Global
350
21
  0
DICTIONARY
  5
66
102
{ACAD_REACTORS
330
C
102
}
330
C
100
AcDbDictionary
281
     1
  3
Standard
350
67
  0
DICTIONARY
  5
5F
102
{ACAD_REACTORS
330
C
102
}
330
C
100
AcDbDictionary
281
     1
  3
Standard
350
60
  0
DICTIONARY
  5
61
102
{ACAD_REACTORS
330
C
102
}
330
C
100
AcDbDictionary
281
     1
  0
ACDBDICTIONARYWDFLT
  5
E
102
{ACAD_REACTORS
330
C
102
}
330
C
100
AcDbDictionary
281
     1
  3
Normal
350
F
100
AcDbDictionaryWithDefault
340
F
  0
DICTIONARY
  5
42
102
{ACAD_REACTORS
330
C
102
}
330
C
100
AcDbDictionary
281
     1
  3
A0
350
43
  3
A1
350
44
  3
A2
350
45
  3
A3
350
46
  3
A4
350
47
  3
A5
350
48
  3
A6
350
49
  3
A7
350
4A
  3
A8
350
4B
  3
A9
350
4C
  3
B0
350
4D
  3
B1
350
4E
  3
B2
350
4F
  3
B3
350
50
  3
B4
350
51
  3
B5
350
52
  3
B6
350
53
  0
DICTIONARY
  5
68
102
{ACAD_REACTORS
330
C
102
}
330
C
100
AcDbDictionary
281
     1
  3
Imperial24
350
69
  0
DICTIONARY
  5
64
102
{ACAD_REACTORS
330
C
102
}
330
C
100
AcDbDictionary
281
     1
  3
Standard
350
65
  0
DICTIONARY
  5
29
102
{ACAD_REACTORS
330
C
102
}
330
C
100
AcDbDictionary
281
     1
  3
2dWireframe
350
2F
  3
Basic
350
2E
  3
Brighten
350
35
  3
ColorChange
350
39
  3
Conceptual
350
32
  3
Dim
350
34
  3
EdgeColorOff
350
41
  3
Facepattern
350
38
  3
Flat
350
2A
  3
FlatWithEdges
350
2B
  3
Gouraud
350
2C
  3
GouraudWithEdges
350
2D
  3
Hidden
350
31
  3
JitterOff
350
3F
  3
Linepattern
350
37
  3
OverhangOff
350
40
  3
Realistic
350
33
  3
Shaded
350
3E
  3
Shaded with edges
350
3D
  3
Shades of Gray
350
3A
  3
Sketchy
350
3B
  3
Thicken
350
36
  3
Wireframe
350
30
  3
X-Ray
350
3C
  0
XRECORD
  5
1C8
102
{ACAD_REACTORS
330
C
102
}
330
C
100
AcDbXrecord
280
     1
 90
        1
330
65
  0
DICTIONARY
  5
BC
102
{ACAD_REACTORS
330
C
102
}
330
C
100
AcDbDictionary
281
     1
  3
CANNOSCALE
350
C1
  3
CMLEADERSTYLE
350
BE
  3
CTABLESTYLE
350
BD
  3
CVIEWDETAILSTYLE
350
BF
  3
CVIEWSECTIONSTYLE
350
C0
  0
DICTIONARY
  5
B2
102
{ACAD_REACTORS
330
C
102
}
330
C
100
AcDbDictionary
281
     1
  3
DRAWING_TOOL
350
B4
  3
REVIT_CATEGORY_MAPPING
350
B3
  0
SORTENTSTABLE
  5
B6
102
{ACAD_REACTORS
330
B5
102
}
330
B5
100
AcDbSortentsTable
330
70
  0
ACDBDETAILVIEWSTYLE
  5
6B
102
{ACAD_XDICTIONARY
360
B9
102
}
102
{ACAD_REACTORS
330
6A
102
}
330
6A
100
AcDbModelDocViewStyle
 70
     0
  3
Imperial24
290
     0
100
AcDbDetailViewStyle
 70
     0
 71
     0
 90
        3
 71
     1
340
55
 62
   256
 40
0.24
340
0
 62
   256
 40
0.24
300

 40
0.36
280
     3
 71
     2
340
5D
 90
       25
 62
   256
 71
     3
340
55
 62
   256
 40
0.24
 90
        1
 40
0.75
 90
        1
300
%<\AcVar ViewType \f "%tc1">% %<\AcVar ViewDetailId>%\PSCALE %<\AcVar ViewScale \f "%sn">%
 71
     4
340
5D
 90
       25
 62
   256
340
5D
 90
       25
 62
   256
280
     0
  0
LAYOUT
  5
6F
102
{ACAD_REACTORS
330
62
102
}
330
62
100
AcDbPlotSettings
  1

  2

  4

  6

 40
0.0
 41
0.0
 42
0.0
 43
0.0
 44
0.0
 45
0.0
 46
0.0
 47
0.0
 48
0.0
 49
0.0
140
0.0
141
0.0
142
1.0
143
1.0
 70
   688
 72
     0
 73
     0
 74
     5
  7

 75
    16
147
1.0
 76
     0
 77
     2
 78
   300
148
0.0
149
0.0
100
AcDbLayout
  1
Layout1
 70
     1
 71
     1
 10
0.0
 20
0.0
 11
12.0
 21
9.0
 12
0.0
 22
0.0
 32
0.0
 14
1.000000000000000E+20
 24
1.000000000000000E+20
 34
1.000000000000000E+20
 15
-1.000000000000000E+20
 25
-1.000000000000000E+20
 35
-1.000000000000000E+20
146
0.0
 13
0.0
 23
0.0
 33
0.0
 16
1.0
 26
0.0
 36
0.0
 17
0.0
 27
1.0
 37
0.0
 76
     0
330
6C
  0
LAYOUT
  5
77
102
{ACAD_REACTORS
330
62
102
}
330
62
100
AcDbPlotSettings
  1

  2

  4

  6

 40
0.0
 41
0.0
 42
0.0
 43
0.0
 44
0.0
 45
0.0
 46
0.0
 47
0.0
 48
0.0
 49
0.0
140
0.0
141
0.0
142
1.0
143
1.0
 70
   688
 72
     0
 73
     0
 74
     5
  7

 75
    16
147
1.0
 76
     0
 77
     2
 78
   300
148
0.0
149
0.0
100
AcDbLayout
  1
Layout2
 70
     1
 71
     2
 10
0.0
 20
0.0
 11
12.0
 21
9.0
 12
0.0
 22
0.0
 32
0.0
 14
0.0
 24
0.0
 34
0.0
 15
0.0
 25
0.0
 35
0.0
146
0.0
 13
0.0
 23
0.0
 33
0.0
 16
1.0
 26
0.0
 36
0.0
 17
0.0
 27
1.0
 37
0.0
 76
     0
330
74
  0
LAYOUT
  5
73
102
{ACAD_REACTORS
330
62
102
}
330
62
100
AcDbPlotSettings
  1

  2

  4

  6

 40
0.0
 41
0.0
 42
0.0
 43
0.0
 44
0.0
 45
0.0
 46
0.0
 47
0.0
 48
0.0
 49
0.0
140
0.0
141
0.0
142
1.0
143
1.0
 70
  1712
 72
     0
 73
     0
 74
     0
  7

 75
     0
147
1.0
 76
     0
 77
     2
 78
   300
148
0.0
149
0.0
100
AcDbLayout
  1
Model
 70
     1
 71
     0
 10
0.0
 20
0.0
 11
12.0
 21
9.0
 12
0.0
 22
0.0
 32
0.0
 14
0.0
 24
0.0
 34
0.0
 15
0.0
 25
0.0
 35
0.0
146
0.0
 13
0.0
 23
0.0
 33
0.0
 16
1.0
 26
0.0
 36
0.0
 17
0.0
 27
1.0
 37
0.0
 76
     0
330
70
331
57
  0
MATERIAL
  5
19
102
{ACAD_XDICTIONARY
360
1A
102
}
102
{ACAD_REACTORS
330
10
102
}
330
10
100
AcDbMaterial
  1
ByBlock
 72
     0
 43
0.0208333333333333
 43
0.0
 43
0.0
 43
0.0
 43
0.0
 43
0.0208333333333333
 43
0.0
 43
0.0
 43
0.0
 43
0.0
 43
1.0
 43
0.0
 43
0.0
 43
0.0
 43
0.0
 43
1.0
 77
     0
 47
0.0208333333333333
 47
0.0
 47
0.0
 47
0.0
 47
0.0
 47
0.0208333333333333
 47
0.0
 47
0.0
 47
0.0
 47
0.0
 47
1.0
 47
0.0
 47
0.0
 47
0.0
 47
0.0
 47
1.0
171
     0
 49
0.0208333333333333
 49
0.0
 49
0.0
 49
0.0
 49
0.0
 49
0.0208333333333333
 49
0.0
 49
0.0
 49
0.0
 49
0.0
 49
1.0
 49
0.0
 49
0.0
 49
0.0
 49
0.0
 49
1.0
175
     0
142
0.0208333333333333
142
0.0
142
0.0
142
0.0
142
0.0
142
0.0208333333333333
142
0.0
142
0.0
142
0.0
142
0.0
142
1.0
142
0.0
142
0.0
142
0.0
142
0.0
142
1.0
179
     0
144
0.0208333333333333
144
0.0
144
0.0
144
0.0
144
0.0
144
0.0208333333333333
144
0.0
144
0.0
144
0.0
144
0.0
144
1.0
144
0.0
144
0.0
144
0.0
144
0.0
144
1.0
147
0.0208333333333333
147
0.0
147
0.0
147
0.0
147
0.0
147
0.0208333333333333
147
0.0
147
0.0
147
0.0
147
0.0
147
1.0
147
0.0
147
0.0
147
0.0
147
0.0
147
1.0
  0
MATERIAL
  5
11
102
{ACAD_XDICTIONARY
360
12
102
}
102
{ACAD_REACTORS
330
10
102
}
330
10
100
AcDbMaterial
  1
ByLayer
 72
     0
 43
0.0208333333333333
 43
0.0
 43
0.0
 43
0.0
 43
0.0
 43
0.0208333333333333
 43
0.0
 43
0.0
 43
0.0
 43
0.0
 43
1.0
 43
0.0
 43
0.0
 43
0.0
 43
0.0
 43
1.0
 77
     0
 47
0.0208333333333333
 47
0.0
 47
0.0
 47
0.0
 47
0.0
 47
0.0208333333333333
 47
0.0
 47
0.0
 47
0.0
 47
0.0
 47
1.0
 47
0.0
 47
0.0
 47
0.0
 47
0.0
 47
1.0
171
     0
 49
0.0208333333333333
 49
0.0
 49
0.0
 49
0.0
 49
0.0
 49
0.0208333333333333
 49
0.0
 49
0.0
 49
0.0
 49
0.0
 49
1.0
 49
0.0
 49
0.0
 49
0.0
 49
0.0
 49
1.0
175
     0
142
0.0208333333333333
142
0.0
142
0.0
142
0.0
142
0.0
142
0.0208333333333333
142
0.0
142
0.0
142
0.0
142
0.0
142
1.0
142
0.0
142
0.0
142
0.0
142
0.0
142
1.0
179
     0
144
0.0208333333333333
144
0.0
144
0.0
144
0.0
144
0.0
144
0.0208333333333333
144
0.0
144
0.0
144
0.0
144
0.0
144
1.0
144
0.0
144
0.0
144
0.0
144
0.0
144
1.0
147
0.0208333333333333
147
0.0
147
0.0
147
0.0
147
0.0
147
0.0208333333333333
147
0.0
147
0.0
147
0.0
147
0.0
147
1.0
147
0.0
147
0.0
147
0.0
147
0.0
147
1.0
  0
MATERIAL
  5
21
102
{ACAD_XDICTIONARY
360
22
102
}
102
{ACAD_REACTORS
330
10
102
}
330
10
100
AcDbMaterial
  1
Global
 72
     0
 43
0.0208333333333333
 43
0.0
 43
0.0
 43
0.0
 43
0.0
 43
0.0208333333333333
 43
0.0
 43
0.0
 43
0.0
 43
0.0
 43
1.0
 43
0.0
 43
0.0
 43
0.0
 43
0.0
 43
1.0
 77
     0
 47
0.0208333333333333
 47
0.0
 47
0.0
 47
0.0
 47
0.0
 47
0.0208333333333333
 47
0.0
 47
0.0
 47
0.0
 47
0.0
 47
1.0
 47
0.0
 47
0.0
 47
0.0
 47
0.0
 47
1.0
171
     0
 49
0.0208333333333333
 49
0.0
 49
0.0
 49
0.0
 49
0.0
 49
0.0208333333333333
 49
0.0
 49
0.0
 49
0.0
 49
0.0
 49
1.0
 49
0.0
 49
0.0
 49
0.0
 49
0.0
 49
1.0
175
     0
142
0.0208333333333333
142
0.0
142
0.0
142
0.0
142
0.0
142
0.0208333333333333
142
0.0
142
0.0
142
0.0
142
0.0
142
1.0
142
0.0
142
0.0
142
0.0
142
0.0
142
1.0
179
     0
144
0.0208333333333333
144
0.0
144
0.0
144
0.0
144
0.0
144
0.0208333333333333
144
0.0
144
0.0
144
0.0
144
0.0
144
1.0
144
0.0
144
0.0
144
0.0
144
0.0
144
1.0
147
0.0208333333333333
147
0.0
147
0.0
147
0.0
147
0.0
147
0.0208333333333333
147
0.0
147
0.0
147
0.0
147
0.0
147
1.0
147
0.0
147
0.0
147
0.0
147
0.0
147
1.0
  0
MLEADERSTYLE
  5
67
102
{ACAD_XDICTIONARY
360
1F9
102
}
102
{ACAD_REACTORS
330
66
102
}
330
66
100
AcDbMLeaderStyle
179
     2
170
     2
171
     1
172
     0
 90
        2
 40
0.0
 41
0.0
173
     1
 91
-1056964608
340
5B
 92
       -2
290
     1
 42
0.09
291
     1
 43
0.36
  3
Standard
 44
0.18
300

342
55
174
     1
178
     6
175
     1
176
     0
 93
-1056964608
 45
0.18
292
     0
297
     0
 46
0.18
 94
-1056964608
 47
1.0
 49
1.0
140
1.0
293
     1
141
0.0
294
     1
177
     0
142
1.0
295
     0
296
     0
143
0.125
271
     0
272
     9
273
     9
  0
MLINESTYLE
  5
60
102
{ACAD_REACTORS
330
5F
102
}
330
5F
100
AcDbMlineStyle
  2
STANDARD
 70
     0
  3

 62
   256
 51
90.0
 52
90.0
 71
     2
 49
0.5
 62
   256
  6
BYLAYER
 49
-0.5
 62
   256
  6
BYLAYER
  0
ACDBPLACEHOLDER
  5
F
102
{ACAD_REACTORS
330
E
102
}
330
E
  0
SCALE
  5
43
102
{ACAD_REACTORS
330
42
102
}
330
42
100
AcDbScale
 70
     0
300
1:1
140
1.0
141
1.0
290
     1
  0
SCALE
  5
44
102
{ACAD_REACTORS
330
42
102
}
330
42
100
AcDbScale
 70
     0
300
1/128" = 1'-0"
140
0.0078125
141
12.0
290
     0
  0
SCALE
  5
45
102
{ACAD_REACTORS
330
42
102
}
330
42
100
AcDbScale
 70
     0
300
1/64" = 1'-0"
140
0.015625
141
12.0
290
     0
  0
SCALE
  5
46
102
{ACAD_REACTORS
330
42
102
}
330
42
100
AcDbScale
 70
     0
300
1/32" = 1'-0"
140
0.03125
141
12.0
290
     0
  0
SCALE
  5
47
102
{ACAD_REACTORS
330
42
102
}
330
42
100
AcDbScale
 70
     0
300
1/16" = 1'-0"
140
0.0625
141
12.0
290
     0
  0
SCALE
  5
48
102
{ACAD_REACTORS
330
42
102
}
330
42
100
AcDbScale
 70
     0
300
3/32" = 1'-0"
140
0.09375
141
12.0
290
     0
  0
SCALE
  5
49
102
{ACAD_REACTORS
330
42
102
}
330
42
100
AcDbScale
 70
     0
300
1/8" = 1'-0"
140
0.125
141
12.0
290
     0
  0
SCALE
  5
4A
102
{ACAD_REACTORS
330
42
102
}
330
42
100
AcDbScale
 70
     0
300
3/16" = 1'-0"
140
0.1875
141
12.0
290
     0
  0
SCALE
  5
4B
102
{ACAD_REACTORS
330
42
102
}
330
42
100
AcDbScale
 70
     0
300
1/4" = 1'-0"
140
0.25
141
12.0
290
     0
  0
SCALE
  5
4C
102
{ACAD_REACTORS
330
42
102
}
330
42
100
AcDbScale
 70
     0
300
3/8" = 1'-0"
140
0.375
141
12.0
290
     0
  0
SCALE
  5
4D
102
{ACAD_REACTORS
330
42
102
}
330
42
100
AcDbScale
 70
     0
300
1/2" = 1'-0"
140
0.5
141
12.0
290
     0
  0
SCALE
  5
4E
102
{ACAD_REACTORS
330
42
102
}
330
42
100
AcDbScale
 70
     0
300
3/4" = 1'-0"
140
0.75
141
12.0
290
     0
  0
SCALE
  5
4F
102
{ACAD_REACTORS
330
42
102
}
330
42
100
AcDbScale
 70
     0
300
1" = 1'-0"
140
1.0
141
12.0
290
     0
  0
SCALE
  5
50
102
{ACAD_REACTORS
330
42
102
}
330
42
100
AcDbScale
 70
     0
300
1-1/2" = 1'-0"
140
1.5
141
12.0
290
     0
  0
SCALE
  5
51
102
{ACAD_REACTORS
330
42
102
}
330
42
100
AcDbScale
 70
     0
300
3" = 1'-0"
140
3.0
141
12.0
290
     0
  0
SCALE
  5
52
102
{ACAD_REACTORS
330
42
102
}
330
42
100
AcDbScale
 70
     0
300
6" = 1'-0"
140
6.0
141
12.0
290
     0
  0
SCALE
  5
53
102
{ACAD_REACTORS
330
42
102
}
330
42
100
AcDbScale
 70
     0
300
1'-0" = 1'-0"
140
12.0
141
12.0
290
     0
  0
ACDBSECTIONVIEWSTYLE
  5
69
102
{ACAD_XDICTIONARY
360
B7
102
}
102
{ACAD_REACTORS
330
68
102
}
330
68
100
AcDbModelDocViewStyle
 70
     0
  3
Imperial24
290
     0
100
AcDbSectionViewStyle
 70
     0
 71
     0
 90
       78
 71
     1
340
55
 62
   256
 40
0.24
340
0
340
0
 62
   256
 40
0.24
300
I, O, Q, S, X, Z
 40
0.48
 90
        3
 40
0.18
 90
        1
 71
     2
340
5D
 90
       25
 62
   256
340
5D
 90
       50
 62
   256
 40
0.24
 40
0.0
 40
0.24
 71
     3
340
55
 62
   256
 40
0.24
 90
        1
 40
0.75
 90
        1
300
%<\AcVar ViewType \f "%tc1">% %<\AcVar ViewSectionStartId>%-%<\AcVar ViewSectionEndId>%\PSCALE %<\AcVar ViewScale \f "%sn">%
 71
     4
 62
   256
 62
   257
300
ANSI31
 40
1.0
 90
        0
290
     0
290
     0
 90
        6
 40
0.0
 40
1.570796326794896
 40
0.2617993877991494
 40
1.308996938995747
 40
-0.2617993877991494
 40
1.832595714594046
  0
TABLESTYLE
  5
65
102
{ACAD_XDICTIONARY
360
1C6
102
}
102
{ACAD_REACTORS
330
64
102
}
330
64
100
AcDbTableStyle
280
     0
  3
Standard
 70
     0
 71
     0
 40
0.06
 41
0.06
280
     0
281
     0
  7
Standard
140
0.18
170
     2
 62
     0
 63
     7
283
     0
 90
      512
 91
        0
  1

274
    -2
284
     1
 64
     0
275
    -2
285
     1
 65
     0
276
    -2
286
     1
 66
     0
277
    -2
287
     1
 67
     0
278
    -2
288
     1
 68
     0
279
    -2
289
     1
 69
     0
  7
Standard
140
0.25
170
     5
 62
     0
 63
     7
283
     0
 90
      512
 91
        0
  1

274
    -2
284
     1
 64
     0
275
    -2
285
     1
 65
     0
276
    -2
286
     1
 66
     0
277
    -2
287
     1
 67
     0
278
    -2
288
     1
 68
     0
279
    -2
289
     1
 69
     0
  7
Standard
140
0.18
170
     5
 62
     0
 63
     7
283
     0
 90
      512
 91
        0
  1

274
    -2
284
     1
 64
     0
275
    -2
285
     1
 65
     0
276
    -2
286
     1
 66
     0
277
    -2
287
     1
 67
     0
278
    -2
288
     1
 68
     0
279
    -2
289
     1
 69
     0
  0
VISUALSTYLE
  5
2F
102
{ACAD_XDICTIONARY
360
1D3
102
}
102
{ACAD_REACTORS
330
29
102
}
330
29
100
AcDbVisualStyle
  2
2dWireframe
 70
     4
177
     2
291
     0
 71
     0
176
     1
 72
     2
176
     1
 73
     0
176
     1
 90
        0
176
     1
 40
0.6
176
     1
 41
30.0
176
     1
 63
     7
421
 16777215
176
     1
 74
     1
176
     1
 91
        4
176
     1
 64
     7
176
     1
 65
   257
176
     1
 75
     1
176
     1
175
     1
176
     1
 42
1.0
176
     1
 92
        0
176
     1
 66
   257
176
     1
 43
1.0
176
     1
 76
     1
176
     1
 77
     6
176
     1
 78
     2
176
     1
 67
     7
176
     1
 79
     5
176
     1
170
     0
176
     1
171
     0
176
     1
290
     0
176
     1
 93
        1
176
     1
 44
0.0
176
     1
173
     0
176
     1
1001
ACAD
1000
AcDbSavedByObjectVersion
1070
     0
  0
VISUALSTYLE
  5
2E
102
{ACAD_XDICTIONARY
360
1D1
102
}
102
{ACAD_REACTORS
330
29
102
}
330
29
100
AcDbVisualStyle
  2
Basic
 70
     7
177
     2
291
     1
 71
     1
176
     1
 72
     0
176
     1
 73
     1
176
     1
 90
        0
176
     1
 40
0.6
176
     1
 41
30.0
176
     1
 63
     7
421
 16777215
176
     1
 74
     0
176
     1
 91
        4
176
     1
 64
     7
176
     1
 65
   257
176
     1
 75
     1
176
     1
175
     1
176
     1
 42
1.0
176
     1
 92
        8
176
     1
 66
     7
176
     1
 43
1.0
176
     1
 76
     1
176
     1
 77
     6
176
     1
 78
     2
176
     1
 67
     7
176
     1
 79
     5
176
     1
170
     0
176
     1
171
     0
176
     1
290
     0
176
     1
 93
        1
176
     1
 44
0.0
176
     1
173
     0
176
     1
1001
ACAD
1000
AcDbSavedByObjectVersion
1070
     0
  0
VISUALSTYLE
  5
35
102
{ACAD_XDICTIONARY
360
1DF
102
}
102
{ACAD_REACTORS
330
29
102
}
330
29
100
AcDbVisualStyle
  2
Brighten
 70
    12
177
     2
291
     1
 71
     2
176
     1
 72
     2
176
     1
 73
     0
176
     1
 90
        0
176
     1
 40
0.6
176
     1
 41
30.0
176
     1
 63
     7
421
 16777215
176
     1
 74
     1
176
     1
 91
        4
176
     1
 64
     7
176
     1
 65
   257
176
     1
 75
     1
176
     1
175
     1
176
     1
 42
1.0
176
     1
 92
        8
176
     1
 66
     7
176
     1
 43
1.0
176
     1
 76
     1
176
     1
 77
     6
176
     1
 78
     2
176
     1
 67
     7
176
     1
 79
     5
176
     1
170
     0
176
     1
171
     0
176
     1
290
     0
176
     1
 93
        1
176
     1
 44
50.0
176
     1
173
     0
176
     1
1001
ACAD
1000
AcDbSavedByObjectVersion
1070
     0
  0
VISUALSTYLE
  5
39
102
{ACAD_XDICTIONARY
360
1E7
102
}
102
{ACAD_REACTORS
330
29
102
}
330
29
100
AcDbVisualStyle
  2
ColorChange
 70
    16
177
     2
291
     1
 71
     2
176
     1
 72
     2
176
     1
 73
     3
176
     1
 90
        0
176
     1
 40
0.6
176
     1
 41
30.0
176
     1
 63
     8
421
  8421504
176
     1
 74
     1
176
     1
 91
        4
176
     1
 64
     7
176
     1
 65
   257
176
     1
 75
     1
176
     1
175
     1
176
     1
 42
1.0
176
     1
 92
        8
176
     1
 66
     8
424
  8421504
176
     1
 43
1.0
176
     1
 76
     1
176
     1
 77
     6
176
     1
 78
     2
176
     1
 67
     7
176
     1
 79
     5
176
     1
170
     0
176
     1
171
     0
176
     1
290
     0
176
     1
 93
        1
176
     1
 44
0.0
176
     1
173
     0
176
     1
1001
ACAD
1000
AcDbSavedByObjectVersion
1070
     0
  0
VISUALSTYLE
  5
32
102
{ACAD_XDICTIONARY
360
1D9
102
}
102
{ACAD_REACTORS
330
29
102
}
330
29
100
AcDbVisualStyle
  2
Conceptual
 70
     9
177
     2
291
     0
 71
     3
176
     1
 72
     2
176
     1
 73
     0
176
     1
 90
        0
176
     1
 40
0.6
176
     1
 41
30.0
176
     1
 63
     7
421
 16777215
176
     1
 74
     2
176
     1
 91
        2
176
     1
 64
     7
176
     1
 65
   257
176
     1
 75
     1
176
     1
175
     1
176
     1
 42
179.0
176
     1
 92
        8
176
     1
 66
     7
176
     1
 43
1.0
176
     1
 76
     1
176
     1
 77
     6
176
     1
 78
     2
176
     1
 67
     7
176
     1
 79
     3
176
     1
170
     0
176
     1
171
     0
176
     1
290
     0
176
     1
 93
        1
176
     1
 44
0.0
176
     1
173
     0
176
     1
1001
ACAD
1000
AcDbSavedByObjectVersion
1070
     0
  0
VISUALSTYLE
  5
34
102
{ACAD_XDICTIONARY
360
1DD
102
}
102
{ACAD_REACTORS
330
29
102
}
330
29
100
AcDbVisualStyle
  2
Dim
 70
    11
177
     2
291
     1
 71
     2
176
     1
 72
     2
176
     1
 73
     0
176
     1
 90
        0
176
     1
 40
0.6
176
     1
 41
30.0
176
     1
 63
     7
421
 16777215
176
     1
 74
     1
176
     1
 91
        4
176
     1
 64
     7
176
     1
 65
   257
176
     1
 75
     1
176
     1
175
     1
176
     1
 42
1.0
176
     1
 92
        8
176
     1
 66
     7
176
     1
 43
1.0
176
     1
 76
     1
176
     1
 77
     6
176
     1
 78
     2
176
     1
 67
     7
176
     1
 79
     5
176
     1
170
     0
176
     1
171
     0
176
     1
290
     0
176
     1
 93
        1
176
     1
 44
-50.0
176
     1
173
     0
176
     1
1001
ACAD
1000
AcDbSavedByObjectVersion
1070
     0
  0
VISUALSTYLE
  5
41
102
{ACAD_XDICTIONARY
360
1F7
102
}
102
{ACAD_REACTORS
330
29
102
}
330
29
100
AcDbVisualStyle
  2
EdgeColorOff
 70
    22
177
     2
291
     1
 71
     2
176
     0
 72
     2
176
     0
 73
     0
176
     0
 90
        0
176
     0
 40
0.6
176
     0
 41
30.0
176
     0
 63
     7
421
 16777215
176
     0
 74
     1
176
     0
 91
        4
176
     0
 64
     7
176
     0
 65
   257
176
     0
 75
     1
176
     0
175
     1
176
     0
 42
1.0
176
     0
 92
        8
176
     2
 66
     7
176
     0
 43
1.0
176
     0
 76
     1
176
     0
 77
     6
176
     0
 78
     2
176
     0
 67
     7
176
     0
 79
     5
176
     0
170
     0
176
     0
171
     0
176
     0
290
     0
176
     0
 93
        1
176
     0
 44
0.0
176
     0
173
     0
176
     0
1001
ACAD
1000
AcDbSavedByObjectVersion
1070
     0
  0
VISUALSTYLE
  5
38
102
{ACAD_XDICTIONARY
360
1E5
102
}
102
{ACAD_REACTORS
330
29
102
}
330
29
100
AcDbVisualStyle
  2
Facepattern
 70
    15
177
     2
291
     1
 71
     2
176
     1
 72
     2
176
     1
 73
     0
176
     1
 90
        0
176
     1
 40
0.6
176
     1
 41
30.0
176
     1
 63
     7
421
 16777215
176
     1
 74
     1
176
     1
 91
        4
176
     1
 64
     7
176
     1
 65
   257
176
     1
 75
     1
176
     1
175
     1
176
     1
 42
1.0
176
     1
 92
        8
176
     1
 66
     7
176
     1
 43
1.0
176
     1
 76
     1
176
     1
 77
     6
176
     1
 78
     2
176
     1
 67
     7
176
     1
 79
     5
176
     1
170
     0
176
     1
171
     0
176
     1
290
     0
176
     1
 93
        1
176
     1
 44
0.0
176
     1
173
     0
176
     1
1001
ACAD
1000
AcDbSavedByObjectVersion
1070
     0
  0
VISUALSTYLE
  5
2A
102
{ACAD_XDICTIONARY
360
1C9
102
}
102
{ACAD_REACTORS
330
29
102
}
330
29
100
AcDbVisualStyle
  2
Flat
 70
     0
177
     2
291
     1
 71
     2
176
     1
 72
     1
176
     1
 73
     1
176
     1
 90
        2
176
     1
 40
0.6
176
     1
 41
30.0
176
     1
 63
     7
421
 16777215
176
     1
 74
     0
176
     1
 91
        0
176
     1
 64
     7
176
     1
 65
   257
176
     1
 75
     1
176
     1
175
     1
176
     1
 42
1.0
176
     1
 92
        8
176
     1
 66
     7
176
     1
 43
1.0
176
     1
 76
     1
176
     1
 77
     6
176
     1
 78
     2
176
     1
 67
     7
176
     1
 79
     5
176
     1
170
     0
176
     1
171
     0
176
     1
290
     0
176
     1
 93
       13
176
     1
 44
0.0
176
     1
173
     0
176
     1
1001
ACAD
1000
AcDbSavedByObjectVersion
1070
     0
  0
VISUALSTYLE
  5
2B
102
{ACAD_XDICTIONARY
360
1CB
102
}
102
{ACAD_REACTORS
330
29
102
}
330
29
100
AcDbVisualStyle
  2
FlatWithEdges
 70
     1
177
     2
291
     1
 71
     2
176
     1
 72
     1
176
     1
 73
     1
176
     1
 90
        2
176
     1
 40
0.6
176
     1
 41
30.0
176
     1
 63
     7
421
 16777215
176
     1
 74
     1
176
     1
 91
        0
176
     1
 64
     7
176
     1
 65
   257
176
     1
 75
     1
176
     1
175
     1
176
     1
 42
1.0
176
     1
 92
        0
176
     1
 66
   257
176
     1
 43
1.0
176
     1
 76
     1
176
     1
 77
     6
176
     1
 78
     2
176
     1
 67
     7
176
     1
 79
     5
176
     1
170
     0
176
     1
171
     0
176
     1
290
     0
176
     1
 93
       13
176
     1
 44
0.0
176
     1
173
     0
176
     1
1001
ACAD
1000
AcDbSavedByObjectVersion
1070
     0
  0
VISUALSTYLE
  5
2C
102
{ACAD_XDICTIONARY
360
1CD
102
}
102
{ACAD_REACTORS
330
29
102
}
330
29
100
AcDbVisualStyle
  2
Gouraud
 70
     2
177
     2
291
     1
 71
     2
176
     1
 72
     2
176
     1
 73
     1
176
     1
 90
        2
176
     1
 40
0.6
176
     1
 41
30.0
176
     1
 63
     7
421
 16777215
176
     1
 74
     0
176
     1
 91
        0
176
     1
 64
     7
176
     1
 65
   257
176
     1
 75
     1
176
     1
175
     1
176
     1
 42
1.0
176
     1
 92
        0
176
     1
 66
     7
176
     1
 43
1.0
176
     1
 76
     1
176
     1
 77
     6
176
     1
 78
     2
176
     1
 67
     7
176
     1
 79
     5
176
     1
170
     0
176
     1
171
     0
176
     1
290
     0
176
     1
 93
       13
176
     1
 44
0.0
176
     1
173
     0
176
     1
1001
ACAD
1000
AcDbSavedByObjectVersion
1070
     0
  0
VISUALSTYLE
  5
2D
102
{ACAD_XDICTIONARY
360
1CF
102
}
102
{ACAD_REACTORS
330
29
102
}
330
29
100
AcDbVisualStyle
  2
GouraudWithEdges
 70
     3
177
     2
291
     1
 71
     2
176
     1
 72
     2
176
     1
 73
     1
176
     1
 90
        2
176
     1
 40
0.6
176
     1
 41
30.0
176
     1
 63
     7
421
 16777215
176
     1
 74
     1
176
     1
 91
        0
176
     1
 64
     7
176
     1
 65
   257
176
     1
 75
     1
176
     1
175
     1
176
     1
 42
1.0
176
     1
 92
        0
176
     1
 66
   257
176
     1
 43
1.0
176
     1
 76
     1
176
     1
 77
     6
176
     1
 78
     2
176
     1
 67
     7
176
     1
 79
     5
176
     1
170
     0
176
     1
171
     0
176
     1
290
     0
176
     1
 93
       13
176
     1
 44
0.0
176
     1
173
     0
176
     1
1001
ACAD
1000
AcDbSavedByObjectVersion
1070
     0
  0
VISUALSTYLE
  5
31
102
{ACAD_XDICTIONARY
360
1D7
102
}
102
{ACAD_REACTORS
330
29
102
}
330
29
100
AcDbVisualStyle
  2
Hidden
 70
     6
177
     2
291
     0
 71
     1
176
     1
 72
     2
176
     1
 73
     2
176
     1
 90
        0
176
     1
 40
0.6
176
     1
 41
30.0
176
     1
 63
     7
421
 16777215
176
     1
 74
     2
176
     1
 91
        2
176
     1
 64
     7
176
     1
 65
   257
176
     1
 75
     2
176
     1
175
     1
176
     1
 42
40.0
176
     1
 92
        0
176
     1
 66
   257
176
     1
 43
1.0
176
     1
 76
     1
176
     1
 77
     6
176
     1
 78
     2
176
     1
 67
     7
176
     1
 79
     3
176
     1
170
     0
176
     1
171
     0
176
     1
290
     0
176
     1
 93
        1
176
     1
 44
0.0
176
     1
173
     0
176
     1
1001
ACAD
1000
AcDbSavedByObjectVersion
1070
     0
  0
VISUALSTYLE
  5
3F
102
{ACAD_XDICTIONARY
360
1F3
102
}
102
{ACAD_REACTORS
330
29
102
}
330
29
100
AcDbVisualStyle
  2
JitterOff
 70
    20
177
     2
291
     1
 71
     2
176
     0
 72
     2
176
     0
 73
     0
176
     0
 90
        0
176
     0
 40
0.6
176
     0
 41
30.0
176
     0
 63
     7
421
 16777215
176
     0
 74
     1
176
     0
 91
        4
176
     0
 64
     7
176
     0
 65
   257
176
     0
 75
     1
176
     0
175
     1
176
     0
 42
1.0
176
     0
 92
       10
176
     2
 66
     7
176
     0
 43
1.0
176
     0
 76
     1
176
     0
 77
     6
176
     0
 78
     2
176
     0
 67
     7
176
     0
 79
     5
176
     0
170
     0
176
     0
171
     0
176
     0
290
     0
176
     0
 93
        1
176
     0
 44
0.0
176
     0
173
     0
176
     0
1001
ACAD
1000
AcDbSavedByObjectVersion
1070
     0
  0
VISUALSTYLE
  5
37
102
{ACAD_XDICTIONARY
360
1E3
102
}
102
{ACAD_REACTORS
330
29
102
}
330
29
100
AcDbVisualStyle
  2
Linepattern
 70
    14
177
     2
291
     1
 71
     2
176
     1
 72
     2
176
     1
 73
     0
176
     1
 90
        0
176
     1
 40
0.6
176
     1
 41
30.0
176
     1
 63
     7
421
 16777215
176
     1
 74
     1
176
     1
 91
        4
176
     1
 64
     7
176
     1
 65
   257
176
     1
 75
     7
176
     1
175
     7
176
     1
 42
1.0
176
     1
 92
        8
176
     1
 66
     7
176
     1
 43
1.0
176
     1
 76
     1
176
     1
 77
     6
176
     1
 78
     2
176
     1
 67
     7
176
     1
 79
     5
176
     1
170
     0
176
     1
171
     0
176
     1
290
     0
176
     1
 93
        1
176
     1
 44
0.0
176
     1
173
     0
176
     1
1001
ACAD
1000
AcDbSavedByObjectVersion
1070
     0
  0
VISUALSTYLE
  5
40
102
{ACAD_XDICTIONARY
360
1F5
102
}
102
{ACAD_REACTORS
330
29
102
}
330
29
100
AcDbVisualStyle
  2
OverhangOff
 70
    21
177
     2
291
     1
 71
     2
176
     0
 72
     2
176
     0
 73
     0
176
     0
 90
        0
176
     0
 40
0.6
176
     0
 41
30.0
176
     0
 63
     7
421
 16777215
176
     0
 74
     1
176
     0
 91
        4
176
     0
 64
     7
176
     0
 65
   257
176
     0
 75
     1
176
     0
175
     1
176
     0
 42
1.0
176
     0
 92
        9
176
     2
 66
     7
176
     0
 43
1.0
176
     0
 76
     1
176
     0
 77
     6
176
     0
 78
     2
176
     0
 67
     7
176
     0
 79
     5
176
     0
170
     0
176
     0
171
     0
176
     0
290
     0
176
     0
 93
        1
176
     0
 44
0.0
176
     0
173
     0
176
     0
1001
ACAD
1000
AcDbSavedByObjectVersion
1070
     0
  0
VISUALSTYLE
  5
33
102
{ACAD_XDICTIONARY
360
1DB
102
}
102
{ACAD_REACTORS
330
29
102
}
330
29
100
AcDbVisualStyle
  2
Realistic
 70
     8
177
     2
291
     0
 71
     2
176
     1
 72
     3
176
     1
 73
     0
176
     1
 90
        2
176
     1
 40
0.6
176
     1
 41
30.0
176
     1
 63
     7
421
 16777215
176
     1
 74
     0
176
     1
 91
        0
176
     1
 64
     7
176
     1
 65
   257
176
     1
 75
     1
176
     1
175
     1
176
     1
 42
1.0
176
     1
 92
        8
176
     1
 66
   257
176
     1
 43
1.0
176
     1
 76
     1
176
     1
 77
     6
176
     1
 78
     2
176
     1
 67
     7
176
     1
 79
     3
176
     1
170
     0
176
     1
171
     0
176
     1
290
     0
176
     1
 93
       13
176
     1
 44
0.0
176
     1
173
     0
176
     1
1001
ACAD
1000
AcDbSavedByObjectVersion
1070
     0
  0
VISUALSTYLE
  5
3E
102
{ACAD_XDICTIONARY
360
1F1
102
}
102
{ACAD_REACTORS
330
29
102
}
330
29
100
AcDbVisualStyle
  2
Shaded
 70
    27
177
     2
291
     0
 71
     2
176
     1
 72
     2
176
     1
 73
     1
176
     1
 90
        2
176
     1
 40
0.6
176
     1
 41
30.0
176
     1
 63
     7
421
 16777215
176
     1
 74
     0
176
     1
 91
        4
176
     1
 64
     7
176
     1
 65
   257
176
     1
 75
     1
176
     1
175
     1
176
     1
 42
1.0
176
     1
 92
        8
176
     1
 66
   257
176
     1
 43
1.0
176
     1
 76
     1
176
     1
 77
     6
176
     1
 78
     2
176
     1
 67
     8
425
  7895160
176
     1
 79
     3
176
     1
170
     0
176
     1
171
     0
176
     1
290
     0
176
     1
 93
        5
176
     1
 44
0.0
176
     1
173
     0
176
     1
1001
ACAD
1000
AcDbSavedByObjectVersion
1070
     0
  0
VISUALSTYLE
  5
3D
102
{ACAD_XDICTIONARY
360
1EF
102
}
102
{ACAD_REACTORS
330
29
102
}
330
29
100
AcDbVisualStyle
  2
Shaded with edges
 70
    26
177
     2
291
     0
 71
     2
176
     1
 72
     2
176
     1
 73
     1
176
     1
 90
        2
176
     1
 40
0.6
176
     1
 41
30.0
176
     1
 63
     7
421
 16777215
176
     1
 74
     1
176
     1
 91
       10
176
     1
 64
     7
176
     1
 65
   257
176
     1
 75
     2
176
     1
175
     1
176
     1
 42
1.0
176
     1
 92
        8
176
     1
 66
   257
176
     1
 43
1.0
176
     1
 76
     1
176
     1
 77
     6
176
     1
 78
     2
176
     1
 67
     7
176
     1
 79
     3
176
     1
170
     0
176
     1
171
     0
176
     1
290
     0
176
     1
 93
        5
176
     1
 44
0.0
176
     1
173
     0
176
     1
1001
ACAD
1000
AcDbSavedByObjectVersion
1070
     0
  0
VISUALSTYLE
  5
3A
102
{ACAD_XDICTIONARY
360
1E9
102
}
102
{ACAD_REACTORS
330
29
102
}
330
29
100
AcDbVisualStyle
  2
Shades of Gray
 70
    23
177
     2
291
     0
 71
     2
176
     1
 72
     2
176
     1
 73
     3
176
     1
 90
        0
176
     1
 40
0.6
176
     1
 41
30.0
176
     1
 63
     7
421
 16777215
176
     1
 74
     2
176
     1
 91
        2
176
     1
 64
     7
176
     1
 65
     7
176
     1
 75
     1
176
     1
175
     1
176
     1
 42
40.0
176
     1
 92
        8
176
     1
 66
     7
176
     1
 43
1.0
176
     1
 76
     1
176
     1
 77
     6
176
     1
 78
     2
176
     1
 67
     7
176
     1
 79
     3
176
     1
170
     0
176
     1
171
     0
176
     1
290
     0
176
     1
 93
        1
176
     1
 44
0.0
176
     1
173
     0
176
     1
1001
ACAD
1000
AcDbSavedByObjectVersion
1070
     0
  0
VISUALSTYLE
  5
3B
102
{ACAD_XDICTIONARY
360
1EB
102
}
102
{ACAD_REACTORS
330
29
102
}
330
29
100
AcDbVisualStyle
  2
Sketchy
 70
    24
177
     2
291
     0
 71
     1
176
     1
 72
     2
176
     1
 73
     2
176
     1
 90
        0
176
     1
 40
0.6
176
     1
 41
30.0
176
     1
 63
     7
421
 16777215
176
     1
 74
     2
176
     1
 91
        2
176
     1
 64
     7
176
     1
 65
     7
176
     1
 75
     1
176
     1
175
     1
176
     1
 42
40.0
176
     1
 92
       11
176
     1
 66
     7
176
     1
 43
1.0
176
     1
 76
     1
176
     1
 77
     6
176
     1
 78
     2
176
     1
 67
     7
176
     1
 79
     6
176
     1
170
     0
176
     1
171
     0
176
     1
290
     0
176
     1
 93
        1
176
     1
 44
0.0
176
     1
173
     0
176
     1
1001
ACAD
1000
AcDbSavedByObjectVersion
1070
     0
  0
VISUALSTYLE
  5
36
102
{ACAD_XDICTIONARY
360
1E1
102
}
102
{ACAD_REACTORS
330
29
102
}
330
29
100
AcDbVisualStyle
  2
Thicken
 70
    13
177
     2
291
     1
 71
     2
176
     1
 72
     2
176
     1
 73
     0
176
     1
 90
        0
176
     1
 40
0.6
176
     1
 41
30.0
176
     1
 63
     7
421
 16777215
176
     1
 74
     1
176
     1
 91
        4
176
     1
 64
     7
176
     1
 65
   257
176
     1
 75
     1
176
     1
175
     1
176
     1
 42
1.0
176
     1
 92
       12
176
     1
 66
     7
176
     1
 43
1.0
176
     1
 76
     1
176
     1
 77
     6
176
     1
 78
     2
176
     1
 67
     7
176
     1
 79
     5
176
     1
170
     0
176
     1
171
     0
176
     1
290
     0
176
     1
 93
        1
176
     1
 44
0.0
176
     1
173
     0
176
     1
1001
ACAD
1000
AcDbSavedByObjectVersion
1070
     0
  0
VISUALSTYLE
  5
30
102
{ACAD_XDICTIONARY
360
1D5
102
}
102
{ACAD_REACTORS
330
29
102
}
330
29
100
AcDbVisualStyle
  2
Wireframe
 70
     5
177
     2
291
     0
 71
     0
176
     1
 72
     2
176
     1
 73
     0
176
     1
 90
        0
176
     1
 40
0.6
176
     1
 41
30.0
176
     1
 63
     7
421
 16777215
176
     1
 74
     1
176
     1
 91
        4
176
     1
 64
     7
176
     1
 65
   257
176
     1
 75
     1
176
     1
175
     1
176
     1
 42
1.0
176
     1
 92
        0
176
     1
 66
   257
176
     1
 43
1.0
176
     1
 76
     1
176
     1
 77
     6
176
     1
 78
     2
176
     1
 67
     7
176
     1
 79
     3
176
     1
170
     0
176
     1
171
     0
176
     1
290
     0
176
     1
 93
        1
176
     1
 44
0.0
176
     1
173
     0
176
     1
1001
ACAD
1000
AcDbSavedByObjectVersion
1070
     0
  0
VISUALSTYLE
  5
3C
102
{ACAD_XDICTIONARY
360
1ED
102
}
102
{ACAD_REACTORS
330
29
102
}
330
29
100
AcDbVisualStyle
  2
X-Ray
 70
    25
177
     2
291
     0
 71
     2
176
     1
 72
     2
176
     1
 73
     1
176
     1
 90
        1
176
     1
 40
0.5
176
     1
 41
30.0
176
     1
 63
     7
421
 16777215
176
     1
 74
     1
176
     1
 91
        0
176
     1
 64
     7
176
     1
 65
   257
176
     1
 75
     1
176
     1
175
     1
176
     1
 42
1.0
176
     1
 92
        8
176
     1
 66
     7
176
     1
 43
1.0
176
     1
 76
     1
176
     1
 77
     6
176
     1
 78
     2
176
     1
 67
     7
176
     1
 79
     3
176
     1
170
     0
176
     1
171
     0
176
     1
290
     0
176
     1
 93
       13
176
     1
 44
0.0
176
     1
173
     0
176
     1
1001
ACAD
1000
AcDbSavedByObjectVersion
1070
     0
  0
DICTIONARYVAR
  5
C1
102
{ACAD_REACTORS
330
BC
102
}
330
BC
100
DictionaryVariables
280
     0
  1
1:1
  0
DICTIONARYVAR
  5
BE
102
{ACAD_REACTORS
330
BC
102
}
330
BC
100
DictionaryVariables
280
     0
  1
STANDARD
  0
DICTIONARYVAR
  5
BD
102
{ACAD_REACTORS
330
BC
102
}
330
BC
100
DictionaryVariables
280
     0
  1
STANDARD
  0
DICTIONARYVAR
  5
BF
102
{ACAD_REACTORS
330
BC
102
}
330
BC
100
DictionaryVariables
280
     0
  1
Imperial24
  0
DICTIONARYVAR
  5
C0
102
{ACAD_REACTORS
330
BC
102
}
330
BC
100
DictionaryVariables
280
     0
  1
Imperial24
  0
XRECORD
  5
B4
102
{ACAD_REACTORS
330
B2
102
}
330
B2
100
AcDbXrecord
280
     1
  1
BUILDING_ID
  1
Toilet_Seat-Round-American_Standard-Transitional-5024B
  1
FLOOR_ID
  1
39
  0
XRECORD
  5
B3
102
{ACAD_REACTORS
330
B2
102
}
330
B2
100
AcDbXrecord
280
     1
  1
-2001350
  1
Specialty Equipment
  0
DICTIONARY
  5
B9
330
6B
100
AcDbDictionary
280
     1
281
     1
  3
ACAD_XREC_ROUNDTRIP
360
1FC
  0
DICTIONARY
  5
1A
330
19
100
AcDbDictionary
280
     1
281
     1
  3
BUMPTILE
360
1C
  3
DIFFUSETILE
360
1B
  3
OPACITYTILE
360
1F
  3
REFLECTIONTILE
360
1E
  3
REFRACTIONTILE
360
20
  3
SPECULARTILE
360
1D
  0
DICTIONARY
  5
12
330
11
100
AcDbDictionary
280
     1
281
     1
  3
BUMPTILE
360
14
  3
DIFFUSETILE
360
13
  3
OPACITYTILE
360
17
  3
REFLECTIONTILE
360
16
  3
REFRACTIONTILE
360
18
  3
SPECULARTILE
360
15
  0
DICTIONARY
  5
22
330
21
100
AcDbDictionary
280
     1
281
     1
  3
BUMPTILE
360
24
  3
DIFFUSETILE
360
23
  3
OPACITYTILE
360
27
  3
REFLECTIONTILE
360
26
  3
REFRACTIONTILE
360
28
  3
SPECULARTILE
360
25
  0
DICTIONARY
  5
1F9
330
67
100
AcDbDictionary
280
     1
281
     1
  3
ACAD_XREC_ROUNDTRIP
360
1FA
  0
DICTIONARY
  5
B7
330
69
100
AcDbDictionary
280
     1
281
     1
  3
ACAD_XREC_ROUNDTRIP
360
1FB
  0
DICTIONARY
  5
1C6
330
65
100
AcDbDictionary
280
     1
281
     1
  3
ACAD_ROUNDTRIP_2008_TABLESTYLE_CELLSTYLEMAP
360
1C7
  0
DICTIONARY
  5
1D3
330
2F
100
AcDbDictionary
280
     1
281
     1
  3
ACAD_XREC_ROUNDTRIP
360
1D4
  0
DICTIONARY
  5
1D1
330
2E
100
AcDbDictionary
280
     1
281
     1
  3
ACAD_XREC_ROUNDTRIP
360
1D2
  0
DICTIONARY
  5
1DF
330
35
100
AcDbDictionary
280
     1
281
     1
  3
ACAD_XREC_ROUNDTRIP
360
1E0
  0
DICTIONARY
  5
1E7
330
39
100
AcDbDictionary
280
     1
281
     1
  3
ACAD_XREC_ROUNDTRIP
360
1E8
  0
DICTIONARY
  5
1D9
330
32
100
AcDbDictionary
280
     1
281
     1
  3
ACAD_XREC_ROUNDTRIP
360
1DA
  0
DICTIONARY
  5
1DD
330
34
100
AcDbDictionary
280
     1
281
     1
  3
ACAD_XREC_ROUNDTRIP
360
1DE
  0
DICTIONARY
  5
1F7
330
41
100
AcDbDictionary
280
     1
281
     1
  3
ACAD_XREC_ROUNDTRIP
360
1F8
  0
DICTIONARY
  5
1E5
330
38
100
AcDbDictionary
280
     1
281
     1
  3
ACAD_XREC_ROUNDTRIP
360
1E6
  0
DICTIONARY
  5
1C9
330
2A
100
AcDbDictionary
280
     1
281
     1
  3
ACAD_XREC_ROUNDTRIP
360
1CA
  0
DICTIONARY
  5
1CB
330
2B
100
AcDbDictionary
280
     1
281
     1
  3
ACAD_XREC_ROUNDTRIP
360
1CC
  0
DICTIONARY
  5
1CD
330
2C
100
AcDbDictionary
280
     1
281
     1
  3
ACAD_XREC_ROUNDTRIP
360
1CE
  0
DICTIONARY
  5
1CF
330
2D
100
AcDbDictionary
280
     1
281
     1
  3
ACAD_XREC_ROUNDTRIP
360
1D0
  0
DICTIONARY
  5
1D7
330
31
100
AcDbDictionary
280
     1
281
     1
  3
ACAD_XREC_ROUNDTRIP
360
1D8
  0
DICTIONARY
  5
1F3
330
3F
100
AcDbDictionary
280
     1
281
     1
  3
ACAD_XREC_ROUNDTRIP
360
1F4
  0
DICTIONARY
  5
1E3
330
37
100
AcDbDictionary
280
     1
281
     1
  3
ACAD_XREC_ROUNDTRIP
360
1E4
  0
DICTIONARY
  5
1F5
330
40
100
AcDbDictionary
280
     1
281
     1
  3
ACAD_XREC_ROUNDTRIP
360
1F6
  0
DICTIONARY
  5
1DB
330
33
100
AcDbDictionary
280
     1
281
     1
  3
ACAD_XREC_ROUNDTRIP
360
1DC
  0
DICTIONARY
  5
1F1
330
3E
100
AcDbDictionary
280
     1
281
     1
  3
ACAD_XREC_ROUNDTRIP
360
1F2
  0
DICTIONARY
  5
1EF
330
3D
100
AcDbDictionary
280
     1
281
     1
  3
ACAD_XREC_ROUNDTRIP
360
1F0
  0
DICTIONARY
  5
1E9
330
3A
100
AcDbDictionary
280
     1
281
     1
  3
ACAD_XREC_ROUNDTRIP
360
1EA
  0
DICTIONARY
  5
1EB
330
3B
100
AcDbDictionary
280
     1
281
     1
  3
ACAD_XREC_ROUNDTRIP
360
1EC
  0
DICTIONARY
  5
1E1
330
36
100
AcDbDictionary
280
     1
281
     1
  3
ACAD_XREC_ROUNDTRIP
360
1E2
  0
DICTIONARY
  5
1D5
330
30
100
AcDbDictionary
280
     1
281
     1
  3
ACAD_XREC_ROUNDTRIP
360
1D6
  0
DICTIONARY
  5
1ED
330
3C
100
AcDbDictionary
280
     1
281
     1
  3
ACAD_XREC_ROUNDTRIP
360
1EE
  0
XRECORD
  5
1FC
102
{ACAD_REACTORS
330
B9
102
}
330
B9
100
AcDbXrecord
280
     1
102
DISPLAYNAME
  1
Imperial24
102
FLAGS
 90
        0
  0
XRECORD
  5
1C
102
{ACAD_REACTORS
330
1A
102
}
330
1A
100
AcDbXrecord
280
     1
270
     1
271
     1
  0
XRECORD
  5
1B
102
{ACAD_REACTORS
330
1A
102
}
330
1A
100
AcDbXrecord
280
     1
270
     1
271
     1
  0
XRECORD
  5
1F
102
{ACAD_REACTORS
330
1A
102
}
330
1A
100
AcDbXrecord
280
     1
270
     1
271
     1
  0
XRECORD
  5
1E
102
{ACAD_REACTORS
330
1A
102
}
330
1A
100
AcDbXrecord
280
     1
270
     1
271
     1
  0
XRECORD
  5
20
102
{ACAD_REACTORS
330
1A
102
}
330
1A
100
AcDbXrecord
280
     1
270
     1
271
     1
  0
XRECORD
  5
1D
102
{ACAD_REACTORS
330
1A
102
}
330
1A
100
AcDbXrecord
280
     1
270
     1
271
     1
  0
XRECORD
  5
14
102
{ACAD_REACTORS
330
12
102
}
330
12
100
AcDbXrecord
280
     1
270
     1
271
     1
  0
XRECORD
  5
13
102
{ACAD_REACTORS
330
12
102
}
330
12
100
AcDbXrecord
280
     1
270
     1
271
     1
  0
XRECORD
  5
17
102
{ACAD_REACTORS
330
12
102
}
330
12
100
AcDbXrecord
280
     1
270
     1
271
     1
  0
XRECORD
  5
16
102
{ACAD_REACTORS
330
12
102
}
330
12
100
AcDbXrecord
280
     1
270
     1
271
     1
  0
XRECORD
  5
18
102
{ACAD_REACTORS
330
12
102
}
330
12
100
AcDbXrecord
280
     1
270
     1
271
     1
  0
XRECORD
  5
15
102
{ACAD_REACTORS
330
12
102
}
330
12
100
AcDbXrecord
280
     1
270
     1
271
     1
  0
XRECORD
  5
24
102
{ACAD_REACTORS
330
22
102
}
330
22
100
AcDbXrecord
280
     1
270
     1
271
     1
  0
XRECORD
  5
23
102
{ACAD_REACTORS
330
22
102
}
330
22
100
AcDbXrecord
280
     1
270
     1
271
     1
  0
XRECORD
  5
27
102
{ACAD_REACTORS
330
22
102
}
330
22
100
AcDbXrecord
280
     1
270
     1
271
     1
  0
XRECORD
  5
26
102
{ACAD_REACTORS
330
22
102
}
330
22
100
AcDbXrecord
280
     1
270
     1
271
     1
  0
XRECORD
  5
28
102
{ACAD_REACTORS
330
22
102
}
330
22
100
AcDbXrecord
280
     1
270
     1
271
     1
  0
XRECORD
  5
25
102
{ACAD_REACTORS
330
22
102
}
330
22
100
AcDbXrecord
280
     1
270
     1
271
     1
  0
XRECORD
  5
1FA
102
{ACAD_REACTORS
330
1F9
102
}
330
1F9
100
AcDbXrecord
280
     1
102
ACAD_ROUNDTRIP_2012_MLEADER_STYLE
298
     1
  0
XRECORD
  5
1FB
102
{ACAD_REACTORS
330
B7
102
}
330
B7
100
AcDbXrecord
280
     1
102
DISPLAYNAME
  1
Imperial24
102
FLAGS
 90
        0
  0
CELLSTYLEMAP
  5
1C7
102
{ACAD_REACTORS
330
1C6
102
}
330
1C6
100
AcDbCellStyleMap
 90
        3
300
CELLSTYLE
  1
TABLEFORMAT_BEGIN
 90
        5
170
     1
 91
        0
 92
    32768
 62
   257
 93
        1
300
CONTENTFORMAT
  1
CONTENTFORMAT_BEGIN
 90
        0
 91
        0
 92
      512
 93
        0
300

 40
0.0
140
1.0
 94
        5
 62
     0
340
55
144
0.25
309
CONTENTFORMAT_END
171
     0
 94
        0
309
TABLEFORMAT_END
  1
CELLSTYLE_BEGIN
 90
        1
 91
        1
300
_TITLE
309
CELLSTYLE_END
300
CELLSTYLE
  1
TABLEFORMAT_BEGIN
 90
        5
170
     1
 91
        0
 92
        0
 62
   257
 93
        1
300
CONTENTFORMAT
  1
CONTENTFORMAT_BEGIN
 90
        0
 91
        0
 92
      512
 93
        0
300

 40
0.0
140
1.0
 94
        5
 62
     0
340
55
144
0.18
309
CONTENTFORMAT_END
171
     0
 94
        0
309
TABLEFORMAT_END
  1
CELLSTYLE_BEGIN
 90
        2
 91
        1
300
_HEADER
309
CELLSTYLE_END
300
CELLSTYLE
  1
TABLEFORMAT_BEGIN
 90
        5
170
     1
 91
        0
 92
        0
 62
   257
 93
        1
300
CONTENTFORMAT
  1
CONTENTFORMAT_BEGIN
 90
        0
 91
        0
 92
      512
 93
        0
300

 40
0.0
140
1.0
 94
        2
 62
     0
340
55
144
0.18
309
CONTENTFORMAT_END
171
     0
 94
        0
309
TABLEFORMAT_END
  1
CELLSTYLE_BEGIN
 90
        3
 91
        2
300
_DATA
309
CELLSTYLE_END
  0
XRECORD
  5
1D4
102
{ACAD_REACTORS
330
1D3
102
}
330
1D3
100
AcDbXrecord
280
     1
102
RTVSPost2010Prop28
280
     1
102
RTVSPost2010PropOp28
 70
     1
102
RTVSPost2010Prop29
280
     1
102
RTVSPost2010PropOp29
 70
     1
102
RTVSPost2010Prop30
280
     0
102
RTVSPost2010PropOp30
 70
     1
102
RTVSPost2010Prop31
280
     0
102
RTVSPost2010PropOp31
 70
     1
102
RTVSPost2010Prop32
280
     0
102
RTVSPost2010PropOp32
 70
     1
102
RTVSPost2010Prop33
280
     0
102
RTVSPost2010PropOp33
 70
     1
102
RTVSPost2010Prop34
280
     0
102
RTVSPost2010PropOp34
 70
     1
102
RTVSPost2010Prop35
280
     0
102
RTVSPost2010PropOp35
 70
     1
102
RTVSPost2010Prop36
280
     0
102
RTVSPost2010PropOp36
 70
     1
102
RTVSPost2010Prop37
 90
       50
102
RTVSPost2010PropOp37
 70
     1
102
RTVSPost2010Prop38
140
0.0
102
RTVSPost2010PropOp38
 70
     1
102
RTVSPost2010Prop39
140
1.0
102
RTVSPost2010PropOp39
 70
     1
102
RTVSPost2010Prop40
 90
        0
102
RTVSPost2010PropOp40
 70
     1
102
RTVSPost2010Prop41ColorIndex
 90
       18
102
RTVSPost2010Prop41ColorRGB
 90
        0
102
RTVSPost2010PropOp41
 70
     1
102
RTVSPost2010Prop42
 90
       50
102
RTVSPost2010PropOp42
 70
     1
102
RTVSPost2010Prop43
 90
        3
102
RTVSPost2010PropOp43
 70
     1
102
RTVSPost2010Prop44ColorIndex
 90
        5
102
RTVSPost2010Prop44ColorRGB
 90
      255
102
RTVSPost2010PropOp44
 70
     1
102
RTVSPost2010Prop45
280
     0
102
RTVSPost2010PropOp45
 70
     1
102
RTVSPost2010Prop46
 90
       50
102
RTVSPost2010PropOp46
 70
     1
102
RTVSPost2010Prop47
 90
       50
102
RTVSPost2010PropOp47
 70
     1
102
RTVSPost2010Prop48
 90
       50
102
RTVSPost2010PropOp48
 70
     1
102
RTVSPost2010Prop49
280
     0
102
RTVSPost2010PropOp49
 70
     1
102
RTVSPost2010Prop50
 90
       50
102
RTVSPost2010PropOp50
 70
     1
102
RTVSPost2010Prop51ColorIndex
 90
      256
102
RTVSPost2010Prop51ColorRGB
 90
-16777216
102
RTVSPost2010PropOp51
 70
     0
102
RTVSPost2010Prop52
140
1.0
102
RTVSPost2010PropOp52
 70
     0
102
RTVSPost2010Prop53
 90
        2
102
RTVSPost2010PropOp53
 70
     1
102
RTVSPost2010Prop54
  1
strokes_ogs.tif
102
RTVSPost2010PropOp54
 70
     1
102
RTVSPost2010Prop55
280
     0
102
RTVSPost2010PropOp55
 70
     1
102
RTVSPost2010Prop56
140
1.0
102
RTVSPost2010PropOp56
 70
     1
102
RTVSPost2010Prop57
140
1.0
102
RTVSPost2010PropOp57
 70
     1
  0
XRECORD
  5
1D2
102
{ACAD_REACTORS
330
1D1
102
}
330
1D1
100
AcDbXrecord
280
     1
102
RTVSPost2010Prop28
280
     0
102
RTVSPost2010PropOp28
 70
     1
102
RTVSPost2010Prop29
280
     1
102
RTVSPost2010PropOp29
 70
     1
102
RTVSPost2010Prop30
280
     1
102
RTVSPost2010PropOp30
 70
     1
102
RTVSPost2010Prop31
280
     0
102
RTVSPost2010PropOp31
 70
     1
102
RTVSPost2010Prop32
280
     0
102
RTVSPost2010PropOp32
 70
     1
102
RTVSPost2010Prop33
280
     0
102
RTVSPost2010PropOp33
 70
     1
102
RTVSPost2010Prop34
280
     0
102
RTVSPost2010PropOp34
 70
     1
102
RTVSPost2010Prop35
280
     0
102
RTVSPost2010PropOp35
 70
     1
102
RTVSPost2010Prop36
280
     0
102
RTVSPost2010PropOp36
 70
     1
102
RTVSPost2010Prop37
 90
       50
102
RTVSPost2010PropOp37
 70
     1
102
RTVSPost2010Prop38
140
0.0
102
RTVSPost2010PropOp38
 70
     1
102
RTVSPost2010Prop39
140
1.0
102
RTVSPost2010PropOp39
 70
     1
102
RTVSPost2010Prop40
 90
        0
102
RTVSPost2010PropOp40
 70
     1
102
RTVSPost2010Prop41ColorIndex
 90
       18
102
RTVSPost2010Prop41ColorRGB
 90
        0
102
RTVSPost2010PropOp41
 70
     1
102
RTVSPost2010Prop42
 90
       50
102
RTVSPost2010PropOp42
 70
     1
102
RTVSPost2010Prop43
 90
        3
102
RTVSPost2010PropOp43
 70
     1
102
RTVSPost2010Prop44ColorIndex
 90
        5
102
RTVSPost2010Prop44ColorRGB
 90
      255
102
RTVSPost2010PropOp44
 70
     1
102
RTVSPost2010Prop45
280
     0
102
RTVSPost2010PropOp45
 70
     1
102
RTVSPost2010Prop46
 90
       50
102
RTVSPost2010PropOp46
 70
     1
102
RTVSPost2010Prop47
 90
       50
102
RTVSPost2010PropOp47
 70
     1
102
RTVSPost2010Prop48
 90
       50
102
RTVSPost2010PropOp48
 70
     1
102
RTVSPost2010Prop49
280
     0
102
RTVSPost2010PropOp49
 70
     1
102
RTVSPost2010Prop50
 90
       50
102
RTVSPost2010PropOp50
 70
     1
102
RTVSPost2010Prop51ColorIndex
 90
      256
102
RTVSPost2010Prop51ColorRGB
 90
-16777216
102
RTVSPost2010PropOp51
 70
     0
102
RTVSPost2010Prop52
140
1.0
102
RTVSPost2010PropOp52
 70
     0
102
RTVSPost2010Prop53
 90
        2
102
RTVSPost2010PropOp53
 70
     1
102
RTVSPost2010Prop54
  1
strokes_ogs.tif
102
RTVSPost2010PropOp54
 70
     1
102
RTVSPost2010Prop55
280
     0
102
RTVSPost2010PropOp55
 70
     1
102
RTVSPost2010Prop56
140
1.0
102
RTVSPost2010PropOp56
 70
     1
102
RTVSPost2010Prop57
140
1.0
102
RTVSPost2010PropOp57
 70
     1
  0
XRECORD
  5
1E0
102
{ACAD_REACTORS
330
1DF
102
}
330
1DF
100
AcDbXrecord
280
     1
102
RTVSPost2010Prop28
280
     0
102
RTVSPost2010PropOp28
 70
     1
102
RTVSPost2010Prop29
280
     1
102
RTVSPost2010PropOp29
 70
     1
102
RTVSPost2010Prop30
280
     1
102
RTVSPost2010PropOp30
 70
     1
102
RTVSPost2010Prop31
280
     0
102
RTVSPost2010PropOp31
 70
     1
102
RTVSPost2010Prop32
280
     0
102
RTVSPost2010PropOp32
 70
     1
102
RTVSPost2010Prop33
280
     0
102
RTVSPost2010PropOp33
 70
     1
102
RTVSPost2010Prop34
280
     0
102
RTVSPost2010PropOp34
 70
     1
102
RTVSPost2010Prop35
280
     0
102
RTVSPost2010PropOp35
 70
     1
102
RTVSPost2010Prop36
280
     0
102
RTVSPost2010PropOp36
 70
     1
102
RTVSPost2010Prop37
 90
       50
102
RTVSPost2010PropOp37
 70
     1
102
RTVSPost2010Prop38
140
0.0
102
RTVSPost2010PropOp38
 70
     1
102
RTVSPost2010Prop39
140
1.0
102
RTVSPost2010PropOp39
 70
     1
102
RTVSPost2010Prop40
 90
        0
102
RTVSPost2010PropOp40
 70
     1
102
RTVSPost2010Prop41ColorIndex
 90
       18
102
RTVSPost2010Prop41ColorRGB
 90
        0
102
RTVSPost2010PropOp41
 70
     1
102
RTVSPost2010Prop42
 90
       50
102
RTVSPost2010PropOp42
 70
     1
102
RTVSPost2010Prop43
 90
        3
102
RTVSPost2010PropOp43
 70
     1
102
RTVSPost2010Prop44ColorIndex
 90
        5
102
RTVSPost2010Prop44ColorRGB
 90
      255
102
RTVSPost2010PropOp44
 70
     1
102
RTVSPost2010Prop45
280
     0
102
RTVSPost2010PropOp45
 70
     1
102
RTVSPost2010Prop46
 90
       50
102
RTVSPost2010PropOp46
 70
     1
102
RTVSPost2010Prop47
 90
       50
102
RTVSPost2010PropOp47
 70
     1
102
RTVSPost2010Prop48
 90
       50
102
RTVSPost2010PropOp48
 70
     1
102
RTVSPost2010Prop49
280
     0
102
RTVSPost2010PropOp49
 70
     1
102
RTVSPost2010Prop50
 90
       50
102
RTVSPost2010PropOp50
 70
     1
102
RTVSPost2010Prop51ColorIndex
 90
      256
102
RTVSPost2010Prop51ColorRGB
 90
-16777216
102
RTVSPost2010PropOp51
 70
     0
102
RTVSPost2010Prop52
140
1.0
102
RTVSPost2010PropOp52
 70
     0
102
RTVSPost2010Prop53
 90
        2
102
RTVSPost2010PropOp53
 70
     1
102
RTVSPost2010Prop54
  1
strokes_ogs.tif
102
RTVSPost2010PropOp54
 70
     1
102
RTVSPost2010Prop55
280
     0
102
RTVSPost2010PropOp55
 70
     1
102
RTVSPost2010Prop56
140
1.0
102
RTVSPost2010PropOp56
 70
     1
102
RTVSPost2010Prop57
140
1.0
102
RTVSPost2010PropOp57
 70
     1
  0
XRECORD
  5
1E8
102
{ACAD_REACTORS
330
1E7
102
}
330
1E7
100
AcDbXrecord
280
     1
102
RTVSPost2010Prop28
280
     0
102
RTVSPost2010PropOp28
 70
     1
102
RTVSPost2010Prop29
280
     1
102
RTVSPost2010PropOp29
 70
     1
102
RTVSPost2010Prop30
280
     1
102
RTVSPost2010PropOp30
 70
     1
102
RTVSPost2010Prop31
280
     0
102
RTVSPost2010PropOp31
 70
     1
102
RTVSPost2010Prop32
280
     0
102
RTVSPost2010PropOp32
 70
     1
102
RTVSPost2010Prop33
280
     0
102
RTVSPost2010PropOp33
 70
     1
102
RTVSPost2010Prop34
280
     0
102
RTVSPost2010PropOp34
 70
     1
102
RTVSPost2010Prop35
280
     0
102
RTVSPost2010PropOp35
 70
     1
102
RTVSPost2010Prop36
280
     0
102
RTVSPost2010PropOp36
 70
     1
102
RTVSPost2010Prop37
 90
       50
102
RTVSPost2010PropOp37
 70
     1
102
RTVSPost2010Prop38
140
0.0
102
RTVSPost2010PropOp38
 70
     1
102
RTVSPost2010Prop39
140
1.0
102
RTVSPost2010PropOp39
 70
     1
102
RTVSPost2010Prop40
 90
        0
102
RTVSPost2010PropOp40
 70
     1
102
RTVSPost2010Prop41ColorIndex
 90
       18
102
RTVSPost2010Prop41ColorRGB
 90
        0
102
RTVSPost2010PropOp41
 70
     1
102
RTVSPost2010Prop42
 90
       50
102
RTVSPost2010PropOp42
 70
     1
102
RTVSPost2010Prop43
 90
        3
102
RTVSPost2010PropOp43
 70
     1
102
RTVSPost2010Prop44ColorIndex
 90
        5
102
RTVSPost2010Prop44ColorRGB
 90
      255
102
RTVSPost2010PropOp44
 70
     1
102
RTVSPost2010Prop45
280
     0
102
RTVSPost2010PropOp45
 70
     1
102
RTVSPost2010Prop46
 90
       50
102
RTVSPost2010PropOp46
 70
     1
102
RTVSPost2010Prop47
 90
       50
102
RTVSPost2010PropOp47
 70
     1
102
RTVSPost2010Prop48
 90
       50
102
RTVSPost2010PropOp48
 70
     1
102
RTVSPost2010Prop49
280
     0
102
RTVSPost2010PropOp49
 70
     1
102
RTVSPost2010Prop50
 90
       50
102
RTVSPost2010PropOp50
 70
     1
102
RTVSPost2010Prop51ColorIndex
 90
      256
102
RTVSPost2010Prop51ColorRGB
 90
-16777216
102
RTVSPost2010PropOp51
 70
     0
102
RTVSPost2010Prop52
140
1.0
102
RTVSPost2010PropOp52
 70
     0
102
RTVSPost2010Prop53
 90
        2
102
RTVSPost2010PropOp53
 70
     1
102
RTVSPost2010Prop54
  1
strokes_ogs.tif
102
RTVSPost2010PropOp54
 70
     1
102
RTVSPost2010Prop55
280
     0
102
RTVSPost2010PropOp55
 70
     1
102
RTVSPost2010Prop56
140
1.0
102
RTVSPost2010PropOp56
 70
     1
102
RTVSPost2010Prop57
140
1.0
102
RTVSPost2010PropOp57
 70
     1
  0
XRECORD
  5
1DA
102
{ACAD_REACTORS
330
1D9
102
}
330
1D9
100
AcDbXrecord
280
     1
102
RTVSPost2010Prop28
280
     0
102
RTVSPost2010PropOp28
 70
     1
102
RTVSPost2010Prop29
280
     1
102
RTVSPost2010PropOp29
 70
     1
102
RTVSPost2010Prop30
280
     1
102
RTVSPost2010PropOp30
 70
     1
102
RTVSPost2010Prop31
280
     0
102
RTVSPost2010PropOp31
 70
     1
102
RTVSPost2010Prop32
280
     0
102
RTVSPost2010PropOp32
 70
     1
102
RTVSPost2010Prop33
280
     0
102
RTVSPost2010PropOp33
 70
     1
102
RTVSPost2010Prop34
280
     0
102
RTVSPost2010PropOp34
 70
     1
102
RTVSPost2010Prop35
280
     0
102
RTVSPost2010PropOp35
 70
     1
102
RTVSPost2010Prop36
280
     0
102
RTVSPost2010PropOp36
 70
     1
102
RTVSPost2010Prop37
 90
       50
102
RTVSPost2010PropOp37
 70
     1
102
RTVSPost2010Prop38
140
0.0
102
RTVSPost2010PropOp38
 70
     1
102
RTVSPost2010Prop39
140
1.0
102
RTVSPost2010PropOp39
 70
     1
102
RTVSPost2010Prop40
 90
        0
102
RTVSPost2010PropOp40
 70
     1
102
RTVSPost2010Prop41ColorIndex
 90
       18
102
RTVSPost2010Prop41ColorRGB
 90
        0
102
RTVSPost2010PropOp41
 70
     1
102
RTVSPost2010Prop42
 90
       50
102
RTVSPost2010PropOp42
 70
     1
102
RTVSPost2010Prop43
 90
        3
102
RTVSPost2010PropOp43
 70
     1
102
RTVSPost2010Prop44ColorIndex
 90
        5
102
RTVSPost2010Prop44ColorRGB
 90
      255
102
RTVSPost2010PropOp44
 70
     1
102
RTVSPost2010Prop45
280
     0
102
RTVSPost2010PropOp45
 70
     1
102
RTVSPost2010Prop46
 90
       50
102
RTVSPost2010PropOp46
 70
     1
102
RTVSPost2010Prop47
 90
       50
102
RTVSPost2010PropOp47
 70
     1
102
RTVSPost2010Prop48
 90
       50
102
RTVSPost2010PropOp48
 70
     1
102
RTVSPost2010Prop49
280
     0
102
RTVSPost2010PropOp49
 70
     1
102
RTVSPost2010Prop50
 90
       50
102
RTVSPost2010PropOp50
 70
     1
102
RTVSPost2010Prop51ColorIndex
 90
      256
102
RTVSPost2010Prop51ColorRGB
 90
-16777216
102
RTVSPost2010PropOp51
 70
     0
102
RTVSPost2010Prop52
140
1.0
102
RTVSPost2010PropOp52
 70
     0
102
RTVSPost2010Prop53
 90
        2
102
RTVSPost2010PropOp53
 70
     1
102
RTVSPost2010Prop54
  1
strokes_ogs.tif
102
RTVSPost2010PropOp54
 70
     1
102
RTVSPost2010Prop55
280
     0
102
RTVSPost2010PropOp55
 70
     1
102
RTVSPost2010Prop56
140
1.0
102
RTVSPost2010PropOp56
 70
     1
102
RTVSPost2010Prop57
140
1.0
102
RTVSPost2010PropOp57
 70
     1
  0
XRECORD
  5
1DE
102
{ACAD_REACTORS
330
1DD
102
}
330
1DD
100
AcDbXrecord
280
     1
102
RTVSPost2010Prop28
280
     0
102
RTVSPost2010PropOp28
 70
     1
102
RTVSPost2010Prop29
280
     1
102
RTVSPost2010PropOp29
 70
     1
102
RTVSPost2010Prop30
280
     1
102
RTVSPost2010PropOp30
 70
     1
102
RTVSPost2010Prop31
280
     0
102
RTVSPost2010PropOp31
 70
     1
102
RTVSPost2010Prop32
280
     0
102
RTVSPost2010PropOp32
 70
     1
102
RTVSPost2010Prop33
280
     0
102
RTVSPost2010PropOp33
 70
     1
102
RTVSPost2010Prop34
280
     0
102
RTVSPost2010PropOp34
 70
     1
102
RTVSPost2010Prop35
280
     0
102
RTVSPost2010PropOp35
 70
     1
102
RTVSPost2010Prop36
280
     0
102
RTVSPost2010PropOp36
 70
     1
102
RTVSPost2010Prop37
 90
       50
102
RTVSPost2010PropOp37
 70
     1
102
RTVSPost2010Prop38
140
0.0
102
RTVSPost2010PropOp38
 70
     1
102
RTVSPost2010Prop39
140
1.0
102
RTVSPost2010PropOp39
 70
     1
102
RTVSPost2010Prop40
 90
        0
102
RTVSPost2010PropOp40
 70
     1
102
RTVSPost2010Prop41ColorIndex
 90
       18
102
RTVSPost2010Prop41ColorRGB
 90
        0
102
RTVSPost2010PropOp41
 70
     1
102
RTVSPost2010Prop42
 90
       50
102
RTVSPost2010PropOp42
 70
     1
102
RTVSPost2010Prop43
 90
        3
102
RTVSPost2010PropOp43
 70
     1
102
RTVSPost2010Prop44ColorIndex
 90
        5
102
RTVSPost2010Prop44ColorRGB
 90
      255
102
RTVSPost2010PropOp44
 70
     1
102
RTVSPost2010Prop45
280
     0
102
RTVSPost2010PropOp45
 70
     1
102
RTVSPost2010Prop46
 90
       50
102
RTVSPost2010PropOp46
 70
     1
102
RTVSPost2010Prop47
 90
       50
102
RTVSPost2010PropOp47
 70
     1
102
RTVSPost2010Prop48
 90
       50
102
RTVSPost2010PropOp48
 70
     1
102
RTVSPost2010Prop49
280
     0
102
RTVSPost2010PropOp49
 70
     1
102
RTVSPost2010Prop50
 90
       50
102
RTVSPost2010PropOp50
 70
     1
102
RTVSPost2010Prop51ColorIndex
 90
      256
102
RTVSPost2010Prop51ColorRGB
 90
-16777216
102
RTVSPost2010PropOp51
 70
     0
102
RTVSPost2010Prop52
140
1.0
102
RTVSPost2010PropOp52
 70
     0
102
RTVSPost2010Prop53
 90
        2
102
RTVSPost2010PropOp53
 70
     1
102
RTVSPost2010Prop54
  1
strokes_ogs.tif
102
RTVSPost2010PropOp54
 70
     1
102
RTVSPost2010Prop55
280
     0
102
RTVSPost2010PropOp55
 70
     1
102
RTVSPost2010Prop56
140
1.0
102
RTVSPost2010PropOp56
 70
     1
102
RTVSPost2010Prop57
140
1.0
102
RTVSPost2010PropOp57
 70
     1
  0
XRECORD
  5
1F8
102
{ACAD_REACTORS
330
1F7
102
}
330
1F7
100
AcDbXrecord
280
     1
102
RTVSPost2010Prop28
280
     0
102
RTVSPost2010PropOp28
 70
     0
102
RTVSPost2010Prop29
280
     1
102
RTVSPost2010PropOp29
 70
     0
102
RTVSPost2010Prop30
280
     1
102
RTVSPost2010PropOp30
 70
     0
102
RTVSPost2010Prop31
280
     0
102
RTVSPost2010PropOp31
 70
     0
102
RTVSPost2010Prop32
280
     0
102
RTVSPost2010PropOp32
 70
     0
102
RTVSPost2010Prop33
280
     0
102
RTVSPost2010PropOp33
 70
     0
102
RTVSPost2010Prop34
280
     0
102
RTVSPost2010PropOp34
 70
     0
102
RTVSPost2010Prop35
280
     0
102
RTVSPost2010PropOp35
 70
     0
102
RTVSPost2010Prop36
280
     0
102
RTVSPost2010PropOp36
 70
     0
102
RTVSPost2010Prop37
 90
       50
102
RTVSPost2010PropOp37
 70
     0
102
RTVSPost2010Prop38
140
0.0
102
RTVSPost2010PropOp38
 70
     0
102
RTVSPost2010Prop39
140
1.0
102
RTVSPost2010PropOp39
 70
     0
102
RTVSPost2010Prop40
 90
        0
102
RTVSPost2010PropOp40
 70
     0
102
RTVSPost2010Prop41ColorIndex
 90
       18
102
RTVSPost2010Prop41ColorRGB
 90
        0
102
RTVSPost2010PropOp41
 70
     0
102
RTVSPost2010Prop42
 90
       50
102
RTVSPost2010PropOp42
 70
     0
102
RTVSPost2010Prop43
 90
        3
102
RTVSPost2010PropOp43
 70
     0
102
RTVSPost2010Prop44ColorIndex
 90
        5
102
RTVSPost2010Prop44ColorRGB
 90
      255
102
RTVSPost2010PropOp44
 70
     0
102
RTVSPost2010Prop45
280
     0
102
RTVSPost2010PropOp45
 70
     0
102
RTVSPost2010Prop46
 90
       50
102
RTVSPost2010PropOp46
 70
     0
102
RTVSPost2010Prop47
 90
       50
102
RTVSPost2010PropOp47
 70
     0
102
RTVSPost2010Prop48
 90
       50
102
RTVSPost2010PropOp48
 70
     0
102
RTVSPost2010Prop49
280
     0
102
RTVSPost2010PropOp49
 70
     0
102
RTVSPost2010Prop50
 90
       50
102
RTVSPost2010PropOp50
 70
     0
102
RTVSPost2010Prop51ColorIndex
 90
      256
102
RTVSPost2010Prop51ColorRGB
 90
-16777216
102
RTVSPost2010PropOp51
 70
     0
102
RTVSPost2010Prop52
140
1.0
102
RTVSPost2010PropOp52
 70
     0
102
RTVSPost2010Prop53
 90
        2
102
RTVSPost2010PropOp53
 70
     0
102
RTVSPost2010Prop54
  1
strokes_ogs.tif
102
RTVSPost2010PropOp54
 70
     0
102
RTVSPost2010Prop55
280
     0
102
RTVSPost2010PropOp55
 70
     0
102
RTVSPost2010Prop56
140
1.0
102
RTVSPost2010PropOp56
 70
     0
102
RTVSPost2010Prop57
140
1.0
102
RTVSPost2010PropOp57
 70
     0
  0
XRECORD
  5
1E6
102
{ACAD_REACTORS
330
1E5
102
}
330
1E5
100
AcDbXrecord
280
     1
102
RTVSPost2010Prop28
280
     0
102
RTVSPost2010PropOp28
 70
     1
102
RTVSPost2010Prop29
280
     1
102
RTVSPost2010PropOp29
 70
     1
102
RTVSPost2010Prop30
280
     1
102
RTVSPost2010PropOp30
 70
     1
102
RTVSPost2010Prop31
280
     0
102
RTVSPost2010PropOp31
 70
     1
102
RTVSPost2010Prop32
280
     0
102
RTVSPost2010PropOp32
 70
     1
102
RTVSPost2010Prop33
280
     0
102
RTVSPost2010PropOp33
 70
     1
102
RTVSPost2010Prop34
280
     0
102
RTVSPost2010PropOp34
 70
     1
102
RTVSPost2010Prop35
280
     0
102
RTVSPost2010PropOp35
 70
     1
102
RTVSPost2010Prop36
280
     0
102
RTVSPost2010PropOp36
 70
     1
102
RTVSPost2010Prop37
 90
       50
102
RTVSPost2010PropOp37
 70
     1
102
RTVSPost2010Prop38
140
0.0
102
RTVSPost2010PropOp38
 70
     1
102
RTVSPost2010Prop39
140
1.0
102
RTVSPost2010PropOp39
 70
     1
102
RTVSPost2010Prop40
 90
        0
102
RTVSPost2010PropOp40
 70
     1
102
RTVSPost2010Prop41ColorIndex
 90
       18
102
RTVSPost2010Prop41ColorRGB
 90
        0
102
RTVSPost2010PropOp41
 70
     1
102
RTVSPost2010Prop42
 90
       50
102
RTVSPost2010PropOp42
 70
     1
102
RTVSPost2010Prop43
 90
        3
102
RTVSPost2010PropOp43
 70
     1
102
RTVSPost2010Prop44ColorIndex
 90
        5
102
RTVSPost2010Prop44ColorRGB
 90
      255
102
RTVSPost2010PropOp44
 70
     1
102
RTVSPost2010Prop45
280
     0
102
RTVSPost2010PropOp45
 70
     1
102
RTVSPost2010Prop46
 90
       50
102
RTVSPost2010PropOp46
 70
     1
102
RTVSPost2010Prop47
 90
       50
102
RTVSPost2010PropOp47
 70
     1
102
RTVSPost2010Prop48
 90
       50
102
RTVSPost2010PropOp48
 70
     1
102
RTVSPost2010Prop49
280
     0
102
RTVSPost2010PropOp49
 70
     1
102
RTVSPost2010Prop50
 90
       50
102
RTVSPost2010PropOp50
 70
     1
102
RTVSPost2010Prop51ColorIndex
 90
      256
102
RTVSPost2010Prop51ColorRGB
 90
-16777216
102
RTVSPost2010PropOp51
 70
     0
102
RTVSPost2010Prop52
140
1.0
102
RTVSPost2010PropOp52
 70
     0
102
RTVSPost2010Prop53
 90
        2
102
RTVSPost2010PropOp53
 70
     1
102
RTVSPost2010Prop54
  1
strokes_ogs.tif
102
RTVSPost2010PropOp54
 70
     1
102
RTVSPost2010Prop55
280
     0
102
RTVSPost2010PropOp55
 70
     1
102
RTVSPost2010Prop56
140
1.0
102
RTVSPost2010PropOp56
 70
     1
102
RTVSPost2010Prop57
140
1.0
102
RTVSPost2010PropOp57
 70
     1
  0
XRECORD
  5
1CA
102
{ACAD_REACTORS
330
1C9
102
}
330
1C9
100
AcDbXrecord
280
     1
102
RTVSPost2010Prop28
280
     0
102
RTVSPost2010PropOp28
 70
     1
102
RTVSPost2010Prop29
280
     1
102
RTVSPost2010PropOp29
 70
     1
102
RTVSPost2010Prop30
280
     1
102
RTVSPost2010PropOp30
 70
     1
102
RTVSPost2010Prop31
280
     0
102
RTVSPost2010PropOp31
 70
     1
102
RTVSPost2010Prop32
280
     0
102
RTVSPost2010PropOp32
 70
     1
102
RTVSPost2010Prop33
280
     0
102
RTVSPost2010PropOp33
 70
     1
102
RTVSPost2010Prop34
280
     0
102
RTVSPost2010PropOp34
 70
     1
102
RTVSPost2010Prop35
280
     0
102
RTVSPost2010PropOp35
 70
     1
102
RTVSPost2010Prop36
280
     0
102
RTVSPost2010PropOp36
 70
     1
102
RTVSPost2010Prop37
 90
       50
102
RTVSPost2010PropOp37
 70
     1
102
RTVSPost2010Prop38
140
0.0
102
RTVSPost2010PropOp38
 70
     1
102
RTVSPost2010Prop39
140
1.0
102
RTVSPost2010PropOp39
 70
     1
102
RTVSPost2010Prop40
 90
        0
102
RTVSPost2010PropOp40
 70
     1
102
RTVSPost2010Prop41ColorIndex
 90
       18
102
RTVSPost2010Prop41ColorRGB
 90
        0
102
RTVSPost2010PropOp41
 70
     1
102
RTVSPost2010Prop42
 90
       50
102
RTVSPost2010PropOp42
 70
     1
102
RTVSPost2010Prop43
 90
        3
102
RTVSPost2010PropOp43
 70
     1
102
RTVSPost2010Prop44ColorIndex
 90
        5
102
RTVSPost2010Prop44ColorRGB
 90
      255
102
RTVSPost2010PropOp44
 70
     1
102
RTVSPost2010Prop45
280
     0
102
RTVSPost2010PropOp45
 70
     1
102
RTVSPost2010Prop46
 90
       50
102
RTVSPost2010PropOp46
 70
     1
102
RTVSPost2010Prop47
 90
       50
102
RTVSPost2010PropOp47
 70
     1
102
RTVSPost2010Prop48
 90
       50
102
RTVSPost2010PropOp48
 70
     1
102
RTVSPost2010Prop49
280
     0
102
RTVSPost2010PropOp49
 70
     1
102
RTVSPost2010Prop50
 90
       50
102
RTVSPost2010PropOp50
 70
     1
102
RTVSPost2010Prop51ColorIndex
 90
      256
102
RTVSPost2010Prop51ColorRGB
 90
-16777216
102
RTVSPost2010PropOp51
 70
     0
102
RTVSPost2010Prop52
140
1.0
102
RTVSPost2010PropOp52
 70
     0
102
RTVSPost2010Prop53
 90
        2
102
RTVSPost2010PropOp53
 70
     1
102
RTVSPost2010Prop54
  1
strokes_ogs.tif
102
RTVSPost2010PropOp54
 70
     1
102
RTVSPost2010Prop55
280
     0
102
RTVSPost2010PropOp55
 70
     1
102
RTVSPost2010Prop56
140
1.0
102
RTVSPost2010PropOp56
 70
     1
102
RTVSPost2010Prop57
140
1.0
102
RTVSPost2010PropOp57
 70
     1
  0
XRECORD
  5
1CC
102
{ACAD_REACTORS
330
1CB
102
}
330
1CB
100
AcDbXrecord
280
     1
102
RTVSPost2010Prop28
280
     0
102
RTVSPost2010PropOp28
 70
     1
102
RTVSPost2010Prop29
280
     1
102
RTVSPost2010PropOp29
 70
     1
102
RTVSPost2010Prop30
280
     1
102
RTVSPost2010PropOp30
 70
     1
102
RTVSPost2010Prop31
280
     0
102
RTVSPost2010PropOp31
 70
     1
102
RTVSPost2010Prop32
280
     0
102
RTVSPost2010PropOp32
 70
     1
102
RTVSPost2010Prop33
280
     0
102
RTVSPost2010PropOp33
 70
     1
102
RTVSPost2010Prop34
280
     0
102
RTVSPost2010PropOp34
 70
     1
102
RTVSPost2010Prop35
280
     0
102
RTVSPost2010PropOp35
 70
     1
102
RTVSPost2010Prop36
280
     0
102
RTVSPost2010PropOp36
 70
     1
102
RTVSPost2010Prop37
 90
       50
102
RTVSPost2010PropOp37
 70
     1
102
RTVSPost2010Prop38
140
0.0
102
RTVSPost2010PropOp38
 70
     1
102
RTVSPost2010Prop39
140
1.0
102
RTVSPost2010PropOp39
 70
     1
102
RTVSPost2010Prop40
 90
        0
102
RTVSPost2010PropOp40
 70
     1
102
RTVSPost2010Prop41ColorIndex
 90
       18
102
RTVSPost2010Prop41ColorRGB
 90
        0
102
RTVSPost2010PropOp41
 70
     1
102
RTVSPost2010Prop42
 90
       50
102
RTVSPost2010PropOp42
 70
     1
102
RTVSPost2010Prop43
 90
        3
102
RTVSPost2010PropOp43
 70
     1
102
RTVSPost2010Prop44ColorIndex
 90
        5
102
RTVSPost2010Prop44ColorRGB
 90
      255
102
RTVSPost2010PropOp44
 70
     1
102
RTVSPost2010Prop45
280
     0
102
RTVSPost2010PropOp45
 70
     1
102
RTVSPost2010Prop46
 90
       50
102
RTVSPost2010PropOp46
 70
     1
102
RTVSPost2010Prop47
 90
       50
102
RTVSPost2010PropOp47
 70
     1
102
RTVSPost2010Prop48
 90
       50
102
RTVSPost2010PropOp48
 70
     1
102
RTVSPost2010Prop49
280
     0
102
RTVSPost2010PropOp49
 70
     1
102
RTVSPost2010Prop50
 90
       50
102
RTVSPost2010PropOp50
 70
     1
102
RTVSPost2010Prop51ColorIndex
 90
      256
102
RTVSPost2010Prop51ColorRGB
 90
-16777216
102
RTVSPost2010PropOp51
 70
     0
102
RTVSPost2010Prop52
140
1.0
102
RTVSPost2010PropOp52
 70
     0
102
RTVSPost2010Prop53
 90
        2
102
RTVSPost2010PropOp53
 70
     1
102
RTVSPost2010Prop54
  1
strokes_ogs.tif
102
RTVSPost2010PropOp54
 70
     1
102
RTVSPost2010Prop55
280
     0
102
RTVSPost2010PropOp55
 70
     1
102
RTVSPost2010Prop56
140
1.0
102
RTVSPost2010PropOp56
 70
     1
102
RTVSPost2010Prop57
140
1.0
102
RTVSPost2010PropOp57
 70
     1
  0
XRECORD
  5
1CE
102
{ACAD_REACTORS
330
1CD
102
}
330
1CD
100
AcDbXrecord
280
     1
102
RTVSPost2010Prop28
280
     0
102
RTVSPost2010PropOp28
 70
     1
102
RTVSPost2010Prop29
280
     1
102
RTVSPost2010PropOp29
 70
     1
102
RTVSPost2010Prop30
280
     1
102
RTVSPost2010PropOp30
 70
     1
102
RTVSPost2010Prop31
280
     0
102
RTVSPost2010PropOp31
 70
     1
102
RTVSPost2010Prop32
280
     0
102
RTVSPost2010PropOp32
 70
     1
102
RTVSPost2010Prop33
280
     0
102
RTVSPost2010PropOp33
 70
     1
102
RTVSPost2010Prop34
280
     0
102
RTVSPost2010PropOp34
 70
     1
102
RTVSPost2010Prop35
280
     0
102
RTVSPost2010PropOp35
 70
     1
102
RTVSPost2010Prop36
280
     0
102
RTVSPost2010PropOp36
 70
     1
102
RTVSPost2010Prop37
 90
       50
102
RTVSPost2010PropOp37
 70
     1
102
RTVSPost2010Prop38
140
0.0
102
RTVSPost2010PropOp38
 70
     1
102
RTVSPost2010Prop39
140
1.0
102
RTVSPost2010PropOp39
 70
     1
102
RTVSPost2010Prop40
 90
        0
102
RTVSPost2010PropOp40
 70
     1
102
RTVSPost2010Prop41ColorIndex
 90
       18
102
RTVSPost2010Prop41ColorRGB
 90
        0
102
RTVSPost2010PropOp41
 70
     1
102
RTVSPost2010Prop42
 90
       50
102
RTVSPost2010PropOp42
 70
     1
102
RTVSPost2010Prop43
 90
        3
102
RTVSPost2010PropOp43
 70
     1
102
RTVSPost2010Prop44ColorIndex
 90
        5
102
RTVSPost2010Prop44ColorRGB
 90
      255
102
RTVSPost2010PropOp44
 70
     1
102
RTVSPost2010Prop45
280
     0
102
RTVSPost2010PropOp45
 70
     1
102
RTVSPost2010Prop46
 90
       50
102
RTVSPost2010PropOp46
 70
     1
102
RTVSPost2010Prop47
 90
       50
102
RTVSPost2010PropOp47
 70
     1
102
RTVSPost2010Prop48
 90
       50
102
RTVSPost2010PropOp48
 70
     1
102
RTVSPost2010Prop49
280
     0
102
RTVSPost2010PropOp49
 70
     1
102
RTVSPost2010Prop50
 90
       50
102
RTVSPost2010PropOp50
 70
     1
102
RTVSPost2010Prop51ColorIndex
 90
      256
102
RTVSPost2010Prop51ColorRGB
 90
-16777216
102
RTVSPost2010PropOp51
 70
     0
102
RTVSPost2010Prop52
140
1.0
102
RTVSPost2010PropOp52
 70
     0
102
RTVSPost2010Prop53
 90
        2
102
RTVSPost2010PropOp53
 70
     1
102
RTVSPost2010Prop54
  1
strokes_ogs.tif
102
RTVSPost2010PropOp54
 70
     1
102
RTVSPost2010Prop55
280
     0
102
RTVSPost2010PropOp55
 70
     1
102
RTVSPost2010Prop56
140
1.0
102
RTVSPost2010PropOp56
 70
     1
102
RTVSPost2010Prop57
140
1.0
102
RTVSPost2010PropOp57
 70
     1
  0
XRECORD
  5
1D0
102
{ACAD_REACTORS
330
1CF
102
}
330
1CF
100
AcDbXrecord
280
     1
102
RTVSPost2010Prop28
280
     0
102
RTVSPost2010PropOp28
 70
     1
102
RTVSPost2010Prop29
280
     1
102
RTVSPost2010PropOp29
 70
     1
102
RTVSPost2010Prop30
280
     1
102
RTVSPost2010PropOp30
 70
     1
102
RTVSPost2010Prop31
280
     0
102
RTVSPost2010PropOp31
 70
     1
102
RTVSPost2010Prop32
280
     0
102
RTVSPost2010PropOp32
 70
     1
102
RTVSPost2010Prop33
280
     0
102
RTVSPost2010PropOp33
 70
     1
102
RTVSPost2010Prop34
280
     0
102
RTVSPost2010PropOp34
 70
     1
102
RTVSPost2010Prop35
280
     0
102
RTVSPost2010PropOp35
 70
     1
102
RTVSPost2010Prop36
280
     0
102
RTVSPost2010PropOp36
 70
     1
102
RTVSPost2010Prop37
 90
       50
102
RTVSPost2010PropOp37
 70
     1
102
RTVSPost2010Prop38
140
0.0
102
RTVSPost2010PropOp38
 70
     1
102
RTVSPost2010Prop39
140
1.0
102
RTVSPost2010PropOp39
 70
     1
102
RTVSPost2010Prop40
 90
        0
102
RTVSPost2010PropOp40
 70
     1
102
RTVSPost2010Prop41ColorIndex
 90
       18
102
RTVSPost2010Prop41ColorRGB
 90
        0
102
RTVSPost2010PropOp41
 70
     1
102
RTVSPost2010Prop42
 90
       50
102
RTVSPost2010PropOp42
 70
     1
102
RTVSPost2010Prop43
 90
        3
102
RTVSPost2010PropOp43
 70
     1
102
RTVSPost2010Prop44ColorIndex
 90
        5
102
RTVSPost2010Prop44ColorRGB
 90
      255
102
RTVSPost2010PropOp44
 70
     1
102
RTVSPost2010Prop45
280
     0
102
RTVSPost2010PropOp45
 70
     1
102
RTVSPost2010Prop46
 90
       50
102
RTVSPost2010PropOp46
 70
     1
102
RTVSPost2010Prop47
 90
       50
102
RTVSPost2010PropOp47
 70
     1
102
RTVSPost2010Prop48
 90
       50
102
RTVSPost2010PropOp48
 70
     1
102
RTVSPost2010Prop49
280
     0
102
RTVSPost2010PropOp49
 70
     1
102
RTVSPost2010Prop50
 90
       50
102
RTVSPost2010PropOp50
 70
     1
102
RTVSPost2010Prop51ColorIndex
 90
      256
102
RTVSPost2010Prop51ColorRGB
 90
-16777216
102
RTVSPost2010PropOp51
 70
     0
102
RTVSPost2010Prop52
140
1.0
102
RTVSPost2010PropOp52
 70
     0
102
RTVSPost2010Prop53
 90
        2
102
RTVSPost2010PropOp53
 70
     1
102
RTVSPost2010Prop54
  1
strokes_ogs.tif
102
RTVSPost2010PropOp54
 70
     1
102
RTVSPost2010Prop55
280
     0
102
RTVSPost2010PropOp55
 70
     1
102
RTVSPost2010Prop56
140
1.0
102
RTVSPost2010PropOp56
 70
     1
102
RTVSPost2010Prop57
140
1.0
102
RTVSPost2010PropOp57
 70
     1
  0
XRECORD
  5
1D8
102
{ACAD_REACTORS
330
1D7
102
}
330
1D7
100
AcDbXrecord
280
     1
102
RTVSPost2010Prop28
280
     0
102
RTVSPost2010PropOp28
 70
     1
102
RTVSPost2010Prop29
280
     1
102
RTVSPost2010PropOp29
 70
     1
102
RTVSPost2010Prop30
280
     1
102
RTVSPost2010PropOp30
 70
     1
102
RTVSPost2010Prop31
280
     0
102
RTVSPost2010PropOp31
 70
     1
102
RTVSPost2010Prop32
280
     0
102
RTVSPost2010PropOp32
 70
     1
102
RTVSPost2010Prop33
280
     0
102
RTVSPost2010PropOp33
 70
     1
102
RTVSPost2010Prop34
280
     0
102
RTVSPost2010PropOp34
 70
     1
102
RTVSPost2010Prop35
280
     0
102
RTVSPost2010PropOp35
 70
     1
102
RTVSPost2010Prop36
280
     0
102
RTVSPost2010PropOp36
 70
     1
102
RTVSPost2010Prop37
 90
       50
102
RTVSPost2010PropOp37
 70
     1
102
RTVSPost2010Prop38
140
0.0
102
RTVSPost2010PropOp38
 70
     1
102
RTVSPost2010Prop39
140
1.0
102
RTVSPost2010PropOp39
 70
     1
102
RTVSPost2010Prop40
 90
        0
102
RTVSPost2010PropOp40
 70
     1
102
RTVSPost2010Prop41ColorIndex
 90
       18
102
RTVSPost2010Prop41ColorRGB
 90
        0
102
RTVSPost2010PropOp41
 70
     1
102
RTVSPost2010Prop42
 90
       50
102
RTVSPost2010PropOp42
 70
     1
102
RTVSPost2010Prop43
 90
        3
102
RTVSPost2010PropOp43
 70
     1
102
RTVSPost2010Prop44ColorIndex
 90
        5
102
RTVSPost2010Prop44ColorRGB
 90
      255
102
RTVSPost2010PropOp44
 70
     1
102
RTVSPost2010Prop45
280
     0
102
RTVSPost2010PropOp45
 70
     1
102
RTVSPost2010Prop46
 90
       50
102
RTVSPost2010PropOp46
 70
     1
102
RTVSPost2010Prop47
 90
       50
102
RTVSPost2010PropOp47
 70
     1
102
RTVSPost2010Prop48
 90
       50
102
RTVSPost2010PropOp48
 70
     1
102
RTVSPost2010Prop49
280
     0
102
RTVSPost2010PropOp49
 70
     1
102
RTVSPost2010Prop50
 90
       50
102
RTVSPost2010PropOp50
 70
     1
102
RTVSPost2010Prop51ColorIndex
 90
      256
102
RTVSPost2010Prop51ColorRGB
 90
-16777216
102
RTVSPost2010PropOp51
 70
     0
102
RTVSPost2010Prop52
140
1.0
102
RTVSPost2010PropOp52
 70
     0
102
RTVSPost2010Prop53
 90
        2
102
RTVSPost2010PropOp53
 70
     1
102
RTVSPost2010Prop54
  1
strokes_ogs.tif
102
RTVSPost2010PropOp54
 70
     1
102
RTVSPost2010Prop55
280
     0
102
RTVSPost2010PropOp55
 70
     1
102
RTVSPost2010Prop56
140
1.0
102
RTVSPost2010PropOp56
 70
     1
102
RTVSPost2010Prop57
140
1.0
102
RTVSPost2010PropOp57
 70
     1
  0
XRECORD
  5
1F4
102
{ACAD_REACTORS
330
1F3
102
}
330
1F3
100
AcDbXrecord
280
     1
102
RTVSPost2010Prop28
280
     0
102
RTVSPost2010PropOp28
 70
     0
102
RTVSPost2010Prop29
280
     1
102
RTVSPost2010PropOp29
 70
     0
102
RTVSPost2010Prop30
280
     1
102
RTVSPost2010PropOp30
 70
     0
102
RTVSPost2010Prop31
280
     0
102
RTVSPost2010PropOp31
 70
     0
102
RTVSPost2010Prop32
280
     0
102
RTVSPost2010PropOp32
 70
     0
102
RTVSPost2010Prop33
280
     0
102
RTVSPost2010PropOp33
 70
     0
102
RTVSPost2010Prop34
280
     0
102
RTVSPost2010PropOp34
 70
     0
102
RTVSPost2010Prop35
280
     0
102
RTVSPost2010PropOp35
 70
     0
102
RTVSPost2010Prop36
280
     0
102
RTVSPost2010PropOp36
 70
     0
102
RTVSPost2010Prop37
 90
       50
102
RTVSPost2010PropOp37
 70
     0
102
RTVSPost2010Prop38
140
0.0
102
RTVSPost2010PropOp38
 70
     0
102
RTVSPost2010Prop39
140
1.0
102
RTVSPost2010PropOp39
 70
     0
102
RTVSPost2010Prop40
 90
        0
102
RTVSPost2010PropOp40
 70
     0
102
RTVSPost2010Prop41ColorIndex
 90
       18
102
RTVSPost2010Prop41ColorRGB
 90
        0
102
RTVSPost2010PropOp41
 70
     0
102
RTVSPost2010Prop42
 90
       50
102
RTVSPost2010PropOp42
 70
     0
102
RTVSPost2010Prop43
 90
        3
102
RTVSPost2010PropOp43
 70
     0
102
RTVSPost2010Prop44ColorIndex
 90
        5
102
RTVSPost2010Prop44ColorRGB
 90
      255
102
RTVSPost2010PropOp44
 70
     0
102
RTVSPost2010Prop45
280
     0
102
RTVSPost2010PropOp45
 70
     0
102
RTVSPost2010Prop46
 90
       50
102
RTVSPost2010PropOp46
 70
     0
102
RTVSPost2010Prop47
 90
       50
102
RTVSPost2010PropOp47
 70
     0
102
RTVSPost2010Prop48
 90
       50
102
RTVSPost2010PropOp48
 70
     0
102
RTVSPost2010Prop49
280
     0
102
RTVSPost2010PropOp49
 70
     0
102
RTVSPost2010Prop50
 90
       50
102
RTVSPost2010PropOp50
 70
     0
102
RTVSPost2010Prop51ColorIndex
 90
      256
102
RTVSPost2010Prop51ColorRGB
 90
-16777216
102
RTVSPost2010PropOp51
 70
     0
102
RTVSPost2010Prop52
140
1.0
102
RTVSPost2010PropOp52
 70
     0
102
RTVSPost2010Prop53
 90
        2
102
RTVSPost2010PropOp53
 70
     0
102
RTVSPost2010Prop54
  1
strokes_ogs.tif
102
RTVSPost2010PropOp54
 70
     0
102
RTVSPost2010Prop55
280
     0
102
RTVSPost2010PropOp55
 70
     0
102
RTVSPost2010Prop56
140
1.0
102
RTVSPost2010PropOp56
 70
     0
102
RTVSPost2010Prop57
140
1.0
102
RTVSPost2010PropOp57
 70
     0
  0
XRECORD
  5
1E4
102
{ACAD_REACTORS
330
1E3
102
}
330
1E3
100
AcDbXrecord
280
     1
102
RTVSPost2010Prop28
280
     0
102
RTVSPost2010PropOp28
 70
     1
102
RTVSPost2010Prop29
280
     1
102
RTVSPost2010PropOp29
 70
     1
102
RTVSPost2010Prop30
280
     1
102
RTVSPost2010PropOp30
 70
     1
102
RTVSPost2010Prop31
280
     0
102
RTVSPost2010PropOp31
 70
     1
102
RTVSPost2010Prop32
280
     0
102
RTVSPost2010PropOp32
 70
     1
102
RTVSPost2010Prop33
280
     0
102
RTVSPost2010PropOp33
 70
     1
102
RTVSPost2010Prop34
280
     0
102
RTVSPost2010PropOp34
 70
     1
102
RTVSPost2010Prop35
280
     0
102
RTVSPost2010PropOp35
 70
     1
102
RTVSPost2010Prop36
280
     0
102
RTVSPost2010PropOp36
 70
     1
102
RTVSPost2010Prop37
 90
       50
102
RTVSPost2010PropOp37
 70
     1
102
RTVSPost2010Prop38
140
0.0
102
RTVSPost2010PropOp38
 70
     1
102
RTVSPost2010Prop39
140
1.0
102
RTVSPost2010PropOp39
 70
     1
102
RTVSPost2010Prop40
 90
        0
102
RTVSPost2010PropOp40
 70
     1
102
RTVSPost2010Prop41ColorIndex
 90
       18
102
RTVSPost2010Prop41ColorRGB
 90
        0
102
RTVSPost2010PropOp41
 70
     1
102
RTVSPost2010Prop42
 90
       50
102
RTVSPost2010PropOp42
 70
     1
102
RTVSPost2010Prop43
 90
        3
102
RTVSPost2010PropOp43
 70
     1
102
RTVSPost2010Prop44ColorIndex
 90
        5
102
RTVSPost2010Prop44ColorRGB
 90
      255
102
RTVSPost2010PropOp44
 70
     1
102
RTVSPost2010Prop45
280
     0
102
RTVSPost2010PropOp45
 70
     1
102
RTVSPost2010Prop46
 90
       50
102
RTVSPost2010PropOp46
 70
     1
102
RTVSPost2010Prop47
 90
       50
102
RTVSPost2010PropOp47
 70
     1
102
RTVSPost2010Prop48
 90
       50
102
RTVSPost2010PropOp48
 70
     1
102
RTVSPost2010Prop49
280
     0
102
RTVSPost2010PropOp49
 70
     1
102
RTVSPost2010Prop50
 90
       50
102
RTVSPost2010PropOp50
 70
     1
102
RTVSPost2010Prop51ColorIndex
 90
      256
102
RTVSPost2010Prop51ColorRGB
 90
-16777216
102
RTVSPost2010PropOp51
 70
     0
102
RTVSPost2010Prop52
140
1.0
102
RTVSPost2010PropOp52
 70
     0
102
RTVSPost2010Prop53
 90
        2
102
RTVSPost2010PropOp53
 70
     1
102
RTVSPost2010Prop54
  1
strokes_ogs.tif
102
RTVSPost2010PropOp54
 70
     1
102
RTVSPost2010Prop55
280
     0
102
RTVSPost2010PropOp55
 70
     1
102
RTVSPost2010Prop56
140
1.0
102
RTVSPost2010PropOp56
 70
     1
102
RTVSPost2010Prop57
140
1.0
102
RTVSPost2010PropOp57
 70
     1
  0
XRECORD
  5
1F6
102
{ACAD_REACTORS
330
1F5
102
}
330
1F5
100
AcDbXrecord
280
     1
102
RTVSPost2010Prop28
280
     0
102
RTVSPost2010PropOp28
 70
     0
102
RTVSPost2010Prop29
280
     1
102
RTVSPost2010PropOp29
 70
     0
102
RTVSPost2010Prop30
280
     1
102
RTVSPost2010PropOp30
 70
     0
102
RTVSPost2010Prop31
280
     0
102
RTVSPost2010PropOp31
 70
     0
102
RTVSPost2010Prop32
280
     0
102
RTVSPost2010PropOp32
 70
     0
102
RTVSPost2010Prop33
280
     0
102
RTVSPost2010PropOp33
 70
     0
102
RTVSPost2010Prop34
280
     0
102
RTVSPost2010PropOp34
 70
     0
102
RTVSPost2010Prop35
280
     0
102
RTVSPost2010PropOp35
 70
     0
102
RTVSPost2010Prop36
280
     0
102
RTVSPost2010PropOp36
 70
     0
102
RTVSPost2010Prop37
 90
       50
102
RTVSPost2010PropOp37
 70
     0
102
RTVSPost2010Prop38
140
0.0
102
RTVSPost2010PropOp38
 70
     0
102
RTVSPost2010Prop39
140
1.0
102
RTVSPost2010PropOp39
 70
     0
102
RTVSPost2010Prop40
 90
        0
102
RTVSPost2010PropOp40
 70
     0
102
RTVSPost2010Prop41ColorIndex
 90
       18
102
RTVSPost2010Prop41ColorRGB
 90
        0
102
RTVSPost2010PropOp41
 70
     0
102
RTVSPost2010Prop42
 90
       50
102
RTVSPost2010PropOp42
 70
     0
102
RTVSPost2010Prop43
 90
        3
102
RTVSPost2010PropOp43
 70
     0
102
RTVSPost2010Prop44ColorIndex
 90
        5
102
RTVSPost2010Prop44ColorRGB
 90
      255
102
RTVSPost2010PropOp44
 70
     0
102
RTVSPost2010Prop45
280
     0
102
RTVSPost2010PropOp45
 70
     0
102
RTVSPost2010Prop46
 90
       50
102
RTVSPost2010PropOp46
 70
     0
102
RTVSPost2010Prop47
 90
       50
102
RTVSPost2010PropOp47
 70
     0
102
RTVSPost2010Prop48
 90
       50
102
RTVSPost2010PropOp48
 70
     0
102
RTVSPost2010Prop49
280
     0
102
RTVSPost2010PropOp49
 70
     0
102
RTVSPost2010Prop50
 90
       50
102
RTVSPost2010PropOp50
 70
     0
102
RTVSPost2010Prop51ColorIndex
 90
      256
102
RTVSPost2010Prop51ColorRGB
 90
-16777216
102
RTVSPost2010PropOp51
 70
     0
102
RTVSPost2010Prop52
140
1.0
102
RTVSPost2010PropOp52
 70
     0
102
RTVSPost2010Prop53
 90
        2
102
RTVSPost2010PropOp53
 70
     0
102
RTVSPost2010Prop54
  1
strokes_ogs.tif
102
RTVSPost2010PropOp54
 70
     0
102
RTVSPost2010Prop55
280
     0
102
RTVSPost2010PropOp55
 70
     0
102
RTVSPost2010Prop56
140
1.0
102
RTVSPost2010PropOp56
 70
     0
102
RTVSPost2010Prop57
140
1.0
102
RTVSPost2010PropOp57
 70
     0
  0
XRECORD
  5
1DC
102
{ACAD_REACTORS
330
1DB
102
}
330
1DB
100
AcDbXrecord
280
     1
102
RTVSPost2010Prop28
280
     0
102
RTVSPost2010PropOp28
 70
     1
102
RTVSPost2010Prop29
280
     1
102
RTVSPost2010PropOp29
 70
     1
102
RTVSPost2010Prop30
280
     1
102
RTVSPost2010PropOp30
 70
     1
102
RTVSPost2010Prop31
280
     0
102
RTVSPost2010PropOp31
 70
     1
102
RTVSPost2010Prop32
280
     0
102
RTVSPost2010PropOp32
 70
     1
102
RTVSPost2010Prop33
280
     0
102
RTVSPost2010PropOp33
 70
     1
102
RTVSPost2010Prop34
280
     0
102
RTVSPost2010PropOp34
 70
     1
102
RTVSPost2010Prop35
280
     0
102
RTVSPost2010PropOp35
 70
     1
102
RTVSPost2010Prop36
280
     0
102
RTVSPost2010PropOp36
 70
     1
102
RTVSPost2010Prop37
 90
       50
102
RTVSPost2010PropOp37
 70
     1
102
RTVSPost2010Prop38
140
0.0
102
RTVSPost2010PropOp38
 70
     1
102
RTVSPost2010Prop39
140
1.0
102
RTVSPost2010PropOp39
 70
     1
102
RTVSPost2010Prop40
 90
        0
102
RTVSPost2010PropOp40
 70
     1
102
RTVSPost2010Prop41ColorIndex
 90
       18
102
RTVSPost2010Prop41ColorRGB
 90
        0
102
RTVSPost2010PropOp41
 70
     1
102
RTVSPost2010Prop42
 90
       50
102
RTVSPost2010PropOp42
 70
     1
102
RTVSPost2010Prop43
 90
        3
102
RTVSPost2010PropOp43
 70
     1
102
RTVSPost2010Prop44ColorIndex
 90
        5
102
RTVSPost2010Prop44ColorRGB
 90
      255
102
RTVSPost2010PropOp44
 70
     1
102
RTVSPost2010Prop45
280
     0
102
RTVSPost2010PropOp45
 70
     1
102
RTVSPost2010Prop46
 90
       50
102
RTVSPost2010PropOp46
 70
     1
102
RTVSPost2010Prop47
 90
       50
102
RTVSPost2010PropOp47
 70
     1
102
RTVSPost2010Prop48
 90
       50
102
RTVSPost2010PropOp48
 70
     1
102
RTVSPost2010Prop49
280
     0
102
RTVSPost2010PropOp49
 70
     1
102
RTVSPost2010Prop50
 90
       50
102
RTVSPost2010PropOp50
 70
     1
102
RTVSPost2010Prop51ColorIndex
 90
      256
102
RTVSPost2010Prop51ColorRGB
 90
-16777216
102
RTVSPost2010PropOp51
 70
     0
102
RTVSPost2010Prop52
140
1.0
102
RTVSPost2010PropOp52
 70
     0
102
RTVSPost2010Prop53
 90
        2
102
RTVSPost2010PropOp53
 70
     1
102
RTVSPost2010Prop54
  1
strokes_ogs.tif
102
RTVSPost2010PropOp54
 70
     1
102
RTVSPost2010Prop55
280
     0
102
RTVSPost2010PropOp55
 70
     1
102
RTVSPost2010Prop56
140
1.0
102
RTVSPost2010PropOp56
 70
     1
102
RTVSPost2010Prop57
140
1.0
102
RTVSPost2010PropOp57
 70
     1
  0
XRECORD
  5
1F2
102
{ACAD_REACTORS
330
1F1
102
}
330
1F1
100
AcDbXrecord
280
     1
102
RTVSPost2010Prop28
280
     0
102
RTVSPost2010PropOp28
 70
     1
102
RTVSPost2010Prop29
280
     1
102
RTVSPost2010PropOp29
 70
     1
102
RTVSPost2010Prop30
280
     1
102
RTVSPost2010PropOp30
 70
     1
102
RTVSPost2010Prop31
280
     0
102
RTVSPost2010PropOp31
 70
     1
102
RTVSPost2010Prop32
280
     0
102
RTVSPost2010PropOp32
 70
     1
102
RTVSPost2010Prop33
280
     0
102
RTVSPost2010PropOp33
 70
     1
102
RTVSPost2010Prop34
280
     0
102
RTVSPost2010PropOp34
 70
     1
102
RTVSPost2010Prop35
280
     0
102
RTVSPost2010PropOp35
 70
     1
102
RTVSPost2010Prop36
280
     0
102
RTVSPost2010PropOp36
 70
     1
102
RTVSPost2010Prop37
 90
       50
102
RTVSPost2010PropOp37
 70
     1
102
RTVSPost2010Prop38
140
0.0
102
RTVSPost2010PropOp38
 70
     1
102
RTVSPost2010Prop39
140
1.0
102
RTVSPost2010PropOp39
 70
     1
102
RTVSPost2010Prop40
 90
        0
102
RTVSPost2010PropOp40
 70
     1
102
RTVSPost2010Prop41ColorIndex
 90
       18
102
RTVSPost2010Prop41ColorRGB
 90
        0
102
RTVSPost2010PropOp41
 70
     1
102
RTVSPost2010Prop42
 90
       50
102
RTVSPost2010PropOp42
 70
     1
102
RTVSPost2010Prop43
 90
        3
102
RTVSPost2010PropOp43
 70
     1
102
RTVSPost2010Prop44ColorIndex
 90
        5
102
RTVSPost2010Prop44ColorRGB
 90
      255
102
RTVSPost2010PropOp44
 70
     1
102
RTVSPost2010Prop45
280
     0
102
RTVSPost2010PropOp45
 70
     1
102
RTVSPost2010Prop46
 90
       50
102
RTVSPost2010PropOp46
 70
     1
102
RTVSPost2010Prop47
 90
       50
102
RTVSPost2010PropOp47
 70
     1
102
RTVSPost2010Prop48
 90
       50
102
RTVSPost2010PropOp48
 70
     1
102
RTVSPost2010Prop49
280
     0
102
RTVSPost2010PropOp49
 70
     1
102
RTVSPost2010Prop50
 90
       50
102
RTVSPost2010PropOp50
 70
     1
102
RTVSPost2010Prop51ColorIndex
 90
      256
102
RTVSPost2010Prop51ColorRGB
 90
-16777216
102
RTVSPost2010PropOp51
 70
     0
102
RTVSPost2010Prop52
140
1.0
102
RTVSPost2010PropOp52
 70
     0
102
RTVSPost2010Prop53
 90
        2
102
RTVSPost2010PropOp53
 70
     1
102
RTVSPost2010Prop54
  1
strokes_ogs.tif
102
RTVSPost2010PropOp54
 70
     1
102
RTVSPost2010Prop55
280
     0
102
RTVSPost2010PropOp55
 70
     1
102
RTVSPost2010Prop56
140
1.0
102
RTVSPost2010PropOp56
 70
     1
102
RTVSPost2010Prop57
140
1.0
102
RTVSPost2010PropOp57
 70
     1
  0
XRECORD
  5
1F0
102
{ACAD_REACTORS
330
1EF
102
}
330
1EF
100
AcDbXrecord
280
     1
102
RTVSPost2010Prop28
280
     0
102
RTVSPost2010PropOp28
 70
     1
102
RTVSPost2010Prop29
280
     1
102
RTVSPost2010PropOp29
 70
     1
102
RTVSPost2010Prop30
280
     1
102
RTVSPost2010PropOp30
 70
     1
102
RTVSPost2010Prop31
280
     0
102
RTVSPost2010PropOp31
 70
     1
102
RTVSPost2010Prop32
280
     0
102
RTVSPost2010PropOp32
 70
     1
102
RTVSPost2010Prop33
280
     0
102
RTVSPost2010PropOp33
 70
     1
102
RTVSPost2010Prop34
280
     0
102
RTVSPost2010PropOp34
 70
     1
102
RTVSPost2010Prop35
280
     0
102
RTVSPost2010PropOp35
 70
     1
102
RTVSPost2010Prop36
280
     0
102
RTVSPost2010PropOp36
 70
     1
102
RTVSPost2010Prop37
 90
       50
102
RTVSPost2010PropOp37
 70
     1
102
RTVSPost2010Prop38
140
0.0
102
RTVSPost2010PropOp38
 70
     1
102
RTVSPost2010Prop39
140
1.0
102
RTVSPost2010PropOp39
 70
     1
102
RTVSPost2010Prop40
 90
        0
102
RTVSPost2010PropOp40
 70
     1
102
RTVSPost2010Prop41ColorIndex
 90
       18
102
RTVSPost2010Prop41ColorRGB
 90
        0
102
RTVSPost2010PropOp41
 70
     1
102
RTVSPost2010Prop42
 90
       50
102
RTVSPost2010PropOp42
 70
     1
102
RTVSPost2010Prop43
 90
        3
102
RTVSPost2010PropOp43
 70
     1
102
RTVSPost2010Prop44ColorIndex
 90
        5
102
RTVSPost2010Prop44ColorRGB
 90
      255
102
RTVSPost2010PropOp44
 70
     1
102
RTVSPost2010Prop45
280
     0
102
RTVSPost2010PropOp45
 70
     1
102
RTVSPost2010Prop46
 90
       50
102
RTVSPost2010PropOp46
 70
     1
102
RTVSPost2010Prop47
 90
       50
102
RTVSPost2010PropOp47
 70
     1
102
RTVSPost2010Prop48
 90
       50
102
RTVSPost2010PropOp48
 70
     1
102
RTVSPost2010Prop49
280
     0
102
RTVSPost2010PropOp49
 70
     1
102
RTVSPost2010Prop50
 90
       50
102
RTVSPost2010PropOp50
 70
     1
102
RTVSPost2010Prop51ColorIndex
 90
      256
102
RTVSPost2010Prop51ColorRGB
 90
-16777216
102
RTVSPost2010PropOp51
 70
     0
102
RTVSPost2010Prop52
140
1.0
102
RTVSPost2010PropOp52
 70
     0
102
RTVSPost2010Prop53
 90
        2
102
RTVSPost2010PropOp53
 70
     1
102
RTVSPost2010Prop54
  1
strokes_ogs.tif
102
RTVSPost2010PropOp54
 70
     1
102
RTVSPost2010Prop55
280
     0
102
RTVSPost2010PropOp55
 70
     1
102
RTVSPost2010Prop56
140
1.0
102
RTVSPost2010PropOp56
 70
     1
102
RTVSPost2010Prop57
140
1.0
102
RTVSPost2010PropOp57
 70
     1
  0
XRECORD
  5
1EA
102
{ACAD_REACTORS
330
1E9
102
}
330
1E9
100
AcDbXrecord
280
     1
102
RTVSPost2010Prop28
280
     0
102
RTVSPost2010PropOp28
 70
     1
102
RTVSPost2010Prop29
280
     1
102
RTVSPost2010PropOp29
 70
     1
102
RTVSPost2010Prop30
280
     1
102
RTVSPost2010PropOp30
 70
     1
102
RTVSPost2010Prop31
280
     0
102
RTVSPost2010PropOp31
 70
     1
102
RTVSPost2010Prop32
280
     0
102
RTVSPost2010PropOp32
 70
     1
102
RTVSPost2010Prop33
280
     0
102
RTVSPost2010PropOp33
 70
     1
102
RTVSPost2010Prop34
280
     0
102
RTVSPost2010PropOp34
 70
     1
102
RTVSPost2010Prop35
280
     0
102
RTVSPost2010PropOp35
 70
     1
102
RTVSPost2010Prop36
280
     0
102
RTVSPost2010PropOp36
 70
     1
102
RTVSPost2010Prop37
 90
       50
102
RTVSPost2010PropOp37
 70
     1
102
RTVSPost2010Prop38
140
0.0
102
RTVSPost2010PropOp38
 70
     1
102
RTVSPost2010Prop39
140
1.0
102
RTVSPost2010PropOp39
 70
     1
102
RTVSPost2010Prop40
 90
        0
102
RTVSPost2010PropOp40
 70
     1
102
RTVSPost2010Prop41ColorIndex
 90
       18
102
RTVSPost2010Prop41ColorRGB
 90
        0
102
RTVSPost2010PropOp41
 70
     1
102
RTVSPost2010Prop42
 90
       50
102
RTVSPost2010PropOp42
 70
     1
102
RTVSPost2010Prop43
 90
        3
102
RTVSPost2010PropOp43
 70
     1
102
RTVSPost2010Prop44ColorIndex
 90
        5
102
RTVSPost2010Prop44ColorRGB
 90
      255
102
RTVSPost2010PropOp44
 70
     1
102
RTVSPost2010Prop45
280
     0
102
RTVSPost2010PropOp45
 70
     1
102
RTVSPost2010Prop46
 90
       50
102
RTVSPost2010PropOp46
 70
     1
102
RTVSPost2010Prop47
 90
       50
102
RTVSPost2010PropOp47
 70
     1
102
RTVSPost2010Prop48
 90
       50
102
RTVSPost2010PropOp48
 70
     1
102
RTVSPost2010Prop49
280
     0
102
RTVSPost2010PropOp49
 70
     1
102
RTVSPost2010Prop50
 90
       50
102
RTVSPost2010PropOp50
 70
     1
102
RTVSPost2010Prop51ColorIndex
 90
      256
102
RTVSPost2010Prop51ColorRGB
 90
-16777216
102
RTVSPost2010PropOp51
 70
     0
102
RTVSPost2010Prop52
140
1.0
102
RTVSPost2010PropOp52
 70
     0
102
RTVSPost2010Prop53
 90
        2
102
RTVSPost2010PropOp53
 70
     1
102
RTVSPost2010Prop54
  1
strokes_ogs.tif
102
RTVSPost2010PropOp54
 70
     1
102
RTVSPost2010Prop55
280
     0
102
RTVSPost2010PropOp55
 70
     1
102
RTVSPost2010Prop56
140
1.0
102
RTVSPost2010PropOp56
 70
     1
102
RTVSPost2010Prop57
140
1.0
102
RTVSPost2010PropOp57
 70
     1
  0
XRECORD
  5
1EC
102
{ACAD_REACTORS
330
1EB
102
}
330
1EB
100
AcDbXrecord
280
     1
102
RTVSPost2010Prop28
280
     0
102
RTVSPost2010PropOp28
 70
     1
102
RTVSPost2010Prop29
280
     1
102
RTVSPost2010PropOp29
 70
     1
102
RTVSPost2010Prop30
280
     1
102
RTVSPost2010PropOp30
 70
     1
102
RTVSPost2010Prop31
280
     0
102
RTVSPost2010PropOp31
 70
     1
102
RTVSPost2010Prop32
280
     0
102
RTVSPost2010PropOp32
 70
     1
102
RTVSPost2010Prop33
280
     0
102
RTVSPost2010PropOp33
 70
     1
102
RTVSPost2010Prop34
280
     0
102
RTVSPost2010PropOp34
 70
     1
102
RTVSPost2010Prop35
280
     0
102
RTVSPost2010PropOp35
 70
     1
102
RTVSPost2010Prop36
280
     0
102
RTVSPost2010PropOp36
 70
     1
102
RTVSPost2010Prop37
 90
       50
102
RTVSPost2010PropOp37
 70
     1
102
RTVSPost2010Prop38
140
0.0
102
RTVSPost2010PropOp38
 70
     1
102
RTVSPost2010Prop39
140
1.0
102
RTVSPost2010PropOp39
 70
     1
102
RTVSPost2010Prop40
 90
        0
102
RTVSPost2010PropOp40
 70
     1
102
RTVSPost2010Prop41ColorIndex
 90
       18
102
RTVSPost2010Prop41ColorRGB
 90
        0
102
RTVSPost2010PropOp41
 70
     1
102
RTVSPost2010Prop42
 90
       50
102
RTVSPost2010PropOp42
 70
     1
102
RTVSPost2010Prop43
 90
        3
102
RTVSPost2010PropOp43
 70
     1
102
RTVSPost2010Prop44ColorIndex
 90
        5
102
RTVSPost2010Prop44ColorRGB
 90
      255
102
RTVSPost2010PropOp44
 70
     1
102
RTVSPost2010Prop45
280
     0
102
RTVSPost2010PropOp45
 70
     1
102
RTVSPost2010Prop46
 90
       50
102
RTVSPost2010PropOp46
 70
     1
102
RTVSPost2010Prop47
 90
       50
102
RTVSPost2010PropOp47
 70
     1
102
RTVSPost2010Prop48
 90
       50
102
RTVSPost2010PropOp48
 70
     1
102
RTVSPost2010Prop49
280
     0
102
RTVSPost2010PropOp49
 70
     1
102
RTVSPost2010Prop50
 90
       50
102
RTVSPost2010PropOp50
 70
     1
102
RTVSPost2010Prop51ColorIndex
 90
      256
102
RTVSPost2010Prop51ColorRGB
 90
-16777216
102
RTVSPost2010PropOp51
 70
     0
102
RTVSPost2010Prop52
140
1.0
102
RTVSPost2010PropOp52
 70
     0
102
RTVSPost2010Prop53
 90
        2
102
RTVSPost2010PropOp53
 70
     1
102
RTVSPost2010Prop54
  1
strokes_ogs.tif
102
RTVSPost2010PropOp54
 70
     1
102
RTVSPost2010Prop55
280
     0
102
RTVSPost2010PropOp55
 70
     1
102
RTVSPost2010Prop56
140
1.0
102
RTVSPost2010PropOp56
 70
     1
102
RTVSPost2010Prop57
140
1.0
102
RTVSPost2010PropOp57
 70
     1
  0
XRECORD
  5
1E2
102
{ACAD_REACTORS
330
1E1
102
}
330
1E1
100
AcDbXrecord
280
     1
102
RTVSPost2010Prop28
280
     0
102
RTVSPost2010PropOp28
 70
     1
102
RTVSPost2010Prop29
280
     1
102
RTVSPost2010PropOp29
 70
     1
102
RTVSPost2010Prop30
280
     1
102
RTVSPost2010PropOp30
 70
     1
102
RTVSPost2010Prop31
280
     0
102
RTVSPost2010PropOp31
 70
     1
102
RTVSPost2010Prop32
280
     0
102
RTVSPost2010PropOp32
 70
     1
102
RTVSPost2010Prop33
280
     0
102
RTVSPost2010PropOp33
 70
     1
102
RTVSPost2010Prop34
280
     0
102
RTVSPost2010PropOp34
 70
     1
102
RTVSPost2010Prop35
280
     0
102
RTVSPost2010PropOp35
 70
     1
102
RTVSPost2010Prop36
280
     0
102
RTVSPost2010PropOp36
 70
     1
102
RTVSPost2010Prop37
 90
       50
102
RTVSPost2010PropOp37
 70
     1
102
RTVSPost2010Prop38
140
0.0
102
RTVSPost2010PropOp38
 70
     1
102
RTVSPost2010Prop39
140
1.0
102
RTVSPost2010PropOp39
 70
     1
102
RTVSPost2010Prop40
 90
        0
102
RTVSPost2010PropOp40
 70
     1
102
RTVSPost2010Prop41ColorIndex
 90
       18
102
RTVSPost2010Prop41ColorRGB
 90
        0
102
RTVSPost2010PropOp41
 70
     1
102
RTVSPost2010Prop42
 90
       50
102
RTVSPost2010PropOp42
 70
     1
102
RTVSPost2010Prop43
 90
        3
102
RTVSPost2010PropOp43
 70
     1
102
RTVSPost2010Prop44ColorIndex
 90
        5
102
RTVSPost2010Prop44ColorRGB
 90
      255
102
RTVSPost2010PropOp44
 70
     1
102
RTVSPost2010Prop45
280
     0
102
RTVSPost2010PropOp45
 70
     1
102
RTVSPost2010Prop46
 90
       50
102
RTVSPost2010PropOp46
 70
     1
102
RTVSPost2010Prop47
 90
       50
102
RTVSPost2010PropOp47
 70
     1
102
RTVSPost2010Prop48
 90
       50
102
RTVSPost2010PropOp48
 70
     1
102
RTVSPost2010Prop49
280
     0
102
RTVSPost2010PropOp49
 70
     1
102
RTVSPost2010Prop50
 90
       50
102
RTVSPost2010PropOp50
 70
     1
102
RTVSPost2010Prop51ColorIndex
 90
      256
102
RTVSPost2010Prop51ColorRGB
 90
-16777216
102
RTVSPost2010PropOp51
 70
     0
102
RTVSPost2010Prop52
140
1.0
102
RTVSPost2010PropOp52
 70
     0
102
RTVSPost2010Prop53
 90
        2
102
RTVSPost2010PropOp53
 70
     1
102
RTVSPost2010Prop54
  1
strokes_ogs.tif
102
RTVSPost2010PropOp54
 70
     1
102
RTVSPost2010Prop55
280
     0
102
RTVSPost2010PropOp55
 70
     1
102
RTVSPost2010Prop56
140
1.0
102
RTVSPost2010PropOp56
 70
     1
102
RTVSPost2010Prop57
140
1.0
102
RTVSPost2010PropOp57
 70
     1
  0
XRECORD
  5
1D6
102
{ACAD_REACTORS
330
1D5
102
}
330
1D5
100
AcDbXrecord
280
     1
102
RTVSPost2010Prop28
280
     0
102
RTVSPost2010PropOp28
 70
     1
102
RTVSPost2010Prop29
280
     1
102
RTVSPost2010PropOp29
 70
     1
102
RTVSPost2010Prop30
280
     1
102
RTVSPost2010PropOp30
 70
     1
102
RTVSPost2010Prop31
280
     0
102
RTVSPost2010PropOp31
 70
     1
102
RTVSPost2010Prop32
280
     0
102
RTVSPost2010PropOp32
 70
     1
102
RTVSPost2010Prop33
280
     0
102
RTVSPost2010PropOp33
 70
     1
102
RTVSPost2010Prop34
280
     0
102
RTVSPost2010PropOp34
 70
     1
102
RTVSPost2010Prop35
280
     0
102
RTVSPost2010PropOp35
 70
     1
102
RTVSPost2010Prop36
280
     0
102
RTVSPost2010PropOp36
 70
     1
102
RTVSPost2010Prop37
 90
       50
102
RTVSPost2010PropOp37
 70
     1
102
RTVSPost2010Prop38
140
0.0
102
RTVSPost2010PropOp38
 70
     1
102
RTVSPost2010Prop39
140
1.0
102
RTVSPost2010PropOp39
 70
     1
102
RTVSPost2010Prop40
 90
        0
102
RTVSPost2010PropOp40
 70
     1
102
RTVSPost2010Prop41ColorIndex
 90
       18
102
RTVSPost2010Prop41ColorRGB
 90
        0
102
RTVSPost2010PropOp41
 70
     1
102
RTVSPost2010Prop42
 90
       50
102
RTVSPost2010PropOp42
 70
     1
102
RTVSPost2010Prop43
 90
        3
102
RTVSPost2010PropOp43
 70
     1
102
RTVSPost2010Prop44ColorIndex
 90
        5
102
RTVSPost2010Prop44ColorRGB
 90
      255
102
RTVSPost2010PropOp44
 70
     1
102
RTVSPost2010Prop45
280
     0
102
RTVSPost2010PropOp45
 70
     1
102
RTVSPost2010Prop46
 90
       50
102
RTVSPost2010PropOp46
 70
     1
102
RTVSPost2010Prop47
 90
       50
102
RTVSPost2010PropOp47
 70
     1
102
RTVSPost2010Prop48
 90
       50
102
RTVSPost2010PropOp48
 70
     1
102
RTVSPost2010Prop49
280
     0
102
RTVSPost2010PropOp49
 70
     1
102
RTVSPost2010Prop50
 90
       50
102
RTVSPost2010PropOp50
 70
     1
102
RTVSPost2010Prop51ColorIndex
 90
      256
102
RTVSPost2010Prop51ColorRGB
 90
-16777216
102
RTVSPost2010PropOp51
 70
     0
102
RTVSPost2010Prop52
140
1.0
102
RTVSPost2010PropOp52
 70
     0
102
RTVSPost2010Prop53
 90
        2
102
RTVSPost2010PropOp53
 70
     1
102
RTVSPost2010Prop54
  1
strokes_ogs.tif
102
RTVSPost2010PropOp54
 70
     1
102
RTVSPost2010Prop55
280
     0
102
RTVSPost2010PropOp55
 70
     1
102
RTVSPost2010Prop56
140
1.0
102
RTVSPost2010PropOp56
 70
     1
102
RTVSPost2010Prop57
140
1.0
102
RTVSPost2010PropOp57
 70
     1
  0
XRECORD
  5
1EE
102
{ACAD_REACTORS
330
1ED
102
}
330
1ED
100
AcDbXrecord
280
     1
102
RTVSPost2010Prop28
280
     0
102
RTVSPost2010PropOp28
 70
     1
102
RTVSPost2010Prop29
280
     1
102
RTVSPost2010PropOp29
 70
     1
102
RTVSPost2010Prop30
280
     1
102
RTVSPost2010PropOp30
 70
     1
102
RTVSPost2010Prop31
280
     0
102
RTVSPost2010PropOp31
 70
     1
102
RTVSPost2010Prop32
280
     0
102
RTVSPost2010PropOp32
 70
     1
102
RTVSPost2010Prop33
280
     0
102
RTVSPost2010PropOp33
 70
     1
102
RTVSPost2010Prop34
280
     0
102
RTVSPost2010PropOp34
 70
     1
102
RTVSPost2010Prop35
280
     0
102
RTVSPost2010PropOp35
 70
     1
102
RTVSPost2010Prop36
280
     0
102
RTVSPost2010PropOp36
 70
     1
102
RTVSPost2010Prop37
 90
       50
102
RTVSPost2010PropOp37
 70
     1
102
RTVSPost2010Prop38
140
0.0
102
RTVSPost2010PropOp38
 70
     1
102
RTVSPost2010Prop39
140
1.0
102
RTVSPost2010PropOp39
 70
     1
102
RTVSPost2010Prop40
 90
        0
102
RTVSPost2010PropOp40
 70
     1
102
RTVSPost2010Prop41ColorIndex
 90
       18
102
RTVSPost2010Prop41ColorRGB
 90
        0
102
RTVSPost2010PropOp41
 70
     1
102
RTVSPost2010Prop42
 90
       50
102
RTVSPost2010PropOp42
 70
     1
102
RTVSPost2010Prop43
 90
        3
102
RTVSPost2010PropOp43
 70
     1
102
RTVSPost2010Prop44ColorIndex
 90
        5
102
RTVSPost2010Prop44ColorRGB
 90
      255
102
RTVSPost2010PropOp44
 70
     1
102
RTVSPost2010Prop45
280
     0
102
RTVSPost2010PropOp45
 70
     1
102
RTVSPost2010Prop46
 90
       50
102
RTVSPost2010PropOp46
 70
     1
102
RTVSPost2010Prop47
 90
       50
102
RTVSPost2010PropOp47
 70
     1
102
RTVSPost2010Prop48
 90
       50
102
RTVSPost2010PropOp48
 70
     1
102
RTVSPost2010Prop49
280
     0
102
RTVSPost2010PropOp49
 70
     1
102
RTVSPost2010Prop50
 90
       50
102
RTVSPost2010PropOp50
 70
     1
102
RTVSPost2010Prop51ColorIndex
 90
      256
102
RTVSPost2010Prop51ColorRGB
 90
-16777216
102
RTVSPost2010PropOp51
 70
     0
102
RTVSPost2010Prop52
140
1.0
102
RTVSPost2010PropOp52
 70
     0
102
RTVSPost2010Prop53
 90
        2
102
RTVSPost2010PropOp53
 70
     1
102
RTVSPost2010Prop54
  1
strokes_ogs.tif
102
RTVSPost2010PropOp54
 70
     1
102
RTVSPost2010Prop55
280
     0
102
RTVSPost2010PropOp55
 70
     1
102
RTVSPost2010Prop56
140
1.0
102
RTVSPost2010PropOp56
 70
     1
102
RTVSPost2010Prop57
140
1.0
102
RTVSPost2010PropOp57
 70
     1
  0
ENDSEC
  0
EOF
